  0
SECTION
  2
HEADER
  9
$ACADVER
  1
AC1015
  9
$ACADMAINTVER
 70
     6
  9
$DWGCODEPAGE
  3
ANSI_1254
  9
$INSBASE
 10
0.0
 20
0.0
 30
0.0
  9
$EXTMIN
 10
0.0
 20
0.0
 30
0.0
  9
$EXTMAX
 10
279.4
 20
215.9
 30
0.0
  9
$LIMMIN
 10
0.0
 20
0.0
  9
$LIMMAX
 10
279.4
 20
215.9
  9
$ORTHOMODE
 70
     0
  9
$REGENMODE
 70
     1
  9
$FILLMODE
 70
     1
  9
$QTEXTMODE
 70
     0
  9
$MIRRTEXT
 70
     1
  9
$LTSCALE
 40
1.0
  9
$ATTMODE
 70
     1
  9
$TEXTSIZE
 40
3.5
  9
$TRACEWID
 40
1.0
  9
$TEXTSTYLE
  7
Standard
  9
$CLAYER
  8
0
  9
$CELTYPE
  6
ByLayer
  9
$CECOLOR
 62
   256
  9
$CELTSCALE
 40
1.0
  9
$DISPSILH
 70
     0
  9
$DIMSCALE
 40
1.0
  9
$DIMASZ
 40
3.5
  9
$DIMEXO
 40
1.0
  9
$DIMDLI
 40
3.75
  9
$DIMRND
 40
0.0
  9
$DIMDLE
 40
0.0
  9
$DIMEXE
 40
1.0
  9
$DIMTP
 40
0.0
  9
$DIMTM
 40
0.0
  9
$DIMTXT
 40
3.5
  9
$DIMCEN
 40
2.5
  9
$DIMTSZ
 40
0.0
  9
$DIMTOL
 70
     0
  9
$DIMLIM
 70
     0
  9
$DIMTIH
 70
     1
  9
$DIMTOH
 70
     1
  9
$DIMSE1
 70
     0
  9
$DIMSE2
 70
     0
  9
$DIMTAD
 70
     1
  9
$DIMZIN
 70
     0
  9
$DIMBLK
  1

  9
$DIMASO
 70
     1
  9
$DIMSHO
 70
     1
  9
$DIMPOST
  1

  9
$DIMAPOST
  1

  9
$DIMALT
 70
     0
  9
$DIMALTD
 70
     3
  9
$DIMALTF
 40
0.0393700787
  9
$DIMLFAC
 40
1.0
  9
$DIMTOFL
 70
     1
  9
$DIMTVP
 40
0.0
  9
$DIMTIX
 70
     0
  9
$DIMSOXD
 70
     0
  9
$DIMSAH
 70
     0
  9
$DIMBLK1
  1

  9
$DIMBLK2
  1

  9
$DIMSTYLE
  2
ISO-25
  9
$DIMCLRD
 70
     0
  9
$DIMCLRE
 70
     0
  9
$DIMCLRT
 70
     0
  9
$DIMTFAC
 40
1.0
  9
$DIMGAP
 40
1.524
  9
$DIMJUST
 70
     0
  9
$DIMSD1
 70
     0
  9
$DIMSD2
 70
     0
  9
$DIMTOLJ
 70
     0
  9
$DIMTZIN
 70
     0
  9
$DIMALTZ
 70
     0
  9
$DIMALTTZ
 70
     0
  9
$DIMUPT
 70
     0
  9
$DIMDEC
 70
     2
  9
$DIMTDEC
 70
     2
  9
$DIMALTU
 70
     2
  9
$DIMALTTD
 70
     3
  9
$DIMTXSTY
  7
Standard
  9
$DIMAUNIT
 70
     0
  9
$DIMADEC
 70
     2
  9
$DIMALTRND
 40
0.0
  9
$DIMAZIN
 70
     0
  9
$DIMDSEP
 70
    44
  9
$DIMATFIT
 70
     3
  9
$DIMFRAC
 70
     0
  9
$DIMLDRBLK
  1

  9
$DIMLUNIT
 70
     2
  9
$DIMLWD
 70
    -2
  9
$DIMLWE
 70
    -2
  9
$DIMTMOVE
 70
     0
  9
$LUNITS
 70
     2
  9
$LUPREC
 70
     2
  9
$SKETCHINC
 40
1.0
  9
$FILLETRAD
 40
10.0
  9
$AUNITS
 70
     0
  9
$AUPREC
 70
     2
  9
$MENU
  1
.
  9
$ELEVATION
 40
0.0
  9
$PELEVATION
 40
0.0
  9
$THICKNESS
 40
0.0
  9
$LIMCHECK
 70
     0
  9
$CHAMFERA
 40
0.0
  9
$CHAMFERB
 40
0.0
  9
$CHAMFERC
 40
0.0
  9
$CHAMFERD
 40
0.0
  9
$SKPOLY
 70
     0
  9
$TDCREATE
 40
2459948.579419016
  9
$TDUCREATE
 40
2459948.454419016
  9
$TDUPDATE
 40
2459948.57941919
  9
$TDUUPDATE
 40
2459948.45441919
  9
$TDINDWG
 40
0.0000000116
  9
$TDUSRTIMER
 40
0.0000000116
  9
$USRTIMER
 70
     1
  9
$ANGBASE
 50
0.0
  9
$ANGDIR
 70
     0
  9
$PDMODE
 70
     0
  9
$PDSIZE
 40
-1.0
  9
$PLINEWID
 40
0.0
  9
$SPLFRAME
 70
     0
  9
$SPLINETYPE
 70
     6
  9
$SPLINESEGS
 70
     8
  9
$HANDSEED
  5
15A
  9
$SURFTAB1
 70
     6
  9
$SURFTAB2
 70
     6
  9
$SURFTYPE
 70
     6
  9
$SURFU
 70
     6
  9
$SURFV
 70
     6
  9
$UCSBASE
  2

  9
$UCSNAME
  2

  9
$UCSORG
 10
0.0
 20
0.0
 30
0.0
  9
$UCSXDIR
 10
1.0
 20
0.0
 30
0.0
  9
$UCSYDIR
 10
0.0
 20
1.0
 30
0.0
  9
$UCSORTHOREF
  2

  9
$UCSORTHOVIEW
 70
     0
  9
$UCSORGTOP
 10
0.0
 20
0.0
 30
0.0
  9
$UCSORGBOTTOM
 10
0.0
 20
0.0
 30
0.0
  9
$UCSORGLEFT
 10
0.0
 20
0.0
 30
0.0
  9
$UCSORGRIGHT
 10
0.0
 20
0.0
 30
0.0
  9
$UCSORGFRONT
 10
0.0
 20
0.0
 30
0.0
  9
$UCSORGBACK
 10
0.0
 20
0.0
 30
0.0
  9
$PUCSBASE
  2

  9
$PUCSNAME
  2

  9
$PUCSORG
 10
0.0
 20
0.0
 30
0.0
  9
$PUCSXDIR
 10
1.0
 20
0.0
 30
0.0
  9
$PUCSYDIR
 10
0.0
 20
1.0
 30
0.0
  9
$PUCSORTHOREF
  2

  9
$PUCSORTHOVIEW
 70
     0
  9
$PUCSORGTOP
 10
0.0
 20
0.0
 30
0.0
  9
$PUCSORGBOTTOM
 10
0.0
 20
0.0
 30
0.0
  9
$PUCSORGLEFT
 10
0.0
 20
0.0
 30
0.0
  9
$PUCSORGRIGHT
 10
0.0
 20
0.0
 30
0.0
  9
$PUCSORGFRONT
 10
0.0
 20
0.0
 30
0.0
  9
$PUCSORGBACK
 10
0.0
 20
0.0
 30
0.0
  9
$USERI1
 70
     0
  9
$USERI2
 70
     0
  9
$USERI3
 70
     0
  9
$USERI4
 70
     0
  9
$USERI5
 70
     0
  9
$USERR1
 40
0.0
  9
$USERR2
 40
0.0
  9
$USERR3
 40
0.0
  9
$USERR4
 40
0.0
  9
$USERR5
 40
0.0
  9
$WORLDVIEW
 70
     1
  9
$SHADEDGE
 70
     3
  9
$SHADEDIF
 70
    70
  9
$TILEMODE
 70
     1
  9
$MAXACTVP
 70
    64
  9
$PINSBASE
 10
0.0
 20
0.0
 30
0.0
  9
$PLIMCHECK
 70
     0
  9
$PEXTMIN
 10
1.0000000000E+20
 20
1.0000000000E+20
 30
1.0000000000E+20
  9
$PEXTMAX
 10
-1.0000000000E+20
 20
-1.0000000000E+20
 30
-1.0000000000E+20
  9
$PLIMMIN
 10
0.0
 20
0.0
  9
$PLIMMAX
 10
420.0
 20
297.0
  9
$UNITMODE
 70
     0
  9
$VISRETAIN
 70
     1
  9
$PLINEGEN
 70
     0
  9
$PSLTSCALE
 70
     1
  9
$TREEDEPTH
 70
  3020
  9
$CMLSTYLE
  2
Standard
  9
$CMLJUST
 70
     0
  9
$CMLSCALE
 40
20.0
  9
$PROXYGRAPHICS
 70
     1
  9
$MEASUREMENT
 70
     1
  9
$CELWEIGHT
370
    -1
  9
$ENDCAPS
280
     0
  9
$JOINSTYLE
280
     0
  9
$LWDISPLAY
290
     1
  9
$INSUNITS
 70
     4
  9
$HYPERLINKBASE
  1

  9
$STYLESHEET
  1

  9
$XEDIT
290
     1
  9
$CEPSNTYPE
380
     0
  9
$PSTYLEMODE
290
     1
  9
$FINGERPRINTGUID
  2
{b880a0b6-c16e-4b0f-b8cf-952937e339a1}
  9
$VERSIONGUID
  2
{FAEB1C32-E019-11D5-929B-00C0DF256EC4}
  9
$EXTNAMES
290
     1
  9
$PSVPSCALE
 40
0.0
  9
$OLESTARTUP
290
     0
  0
ENDSEC
  0
SECTION
  2
CLASSES
  0
CLASS
  1
ACDBDICTIONARYWDFLT
  2
AcDbDictionaryWithDefault
  3
ObjectDBX Classes
 90
        0
280
     0
281
     0
  0
CLASS
  1
VISUALSTYLE
  2
AcDbVisualStyle
  3
ObjectDBX Classes
 90
     4095
280
     0
281
     0
  0
CLASS
  1
MATERIAL
  2
AcDbMaterial
  3
ObjectDBX Classes
 90
     1153
280
     0
281
     0
  0
CLASS
  1
SCALE
  2
AcDbScale
  3
ObjectDBX Classes
 90
     1153
280
     0
281
     0
  0
CLASS
  1
TABLESTYLE
  2
AcDbTableStyle
  3
ObjectDBX Classes
 90
     4095
280
     0
281
     0
  0
CLASS
  1
MLEADERSTYLE
  2
AcDbMLeaderStyle
  3
ACDB_MLEADERSTYLE_CLASS
 90
     4095
280
     0
281
     0
  0
CLASS
  1
SUN
  2
AcDbSun
  3
SCENEOE
 90
     1153
280
     0
281
     0
  0
CLASS
  1
ACDBPLACEHOLDER
  2
AcDbPlaceHolder
  3
ObjectDBX Classes
 90
        0
280
     0
281
     0
  0
CLASS
  1
LAYOUT
  2
AcDbLayout
  3
ObjectDBX Classes
 90
        0
280
     0
281
     0
  0
ENDSEC
  0
SECTION
  2
TABLES
  0
TABLE
  2
VPORT
  5
8
330
0
100
AcDbSymbolTable
 70
     1
  0
VPORT
  5
29
330
8
100
AcDbSymbolTableRecord
100
AcDbViewportTableRecord
  2
*Active
 70
     0
 10
0.0
 20
0.0
 11
1.0
 21
1.0
 12
139.7
 22
107.95
 13
0.0
 23
0.0
 14
10.0
 24
10.0
 15
10.0
 25
10.0
 16
0.0
 26
0.0
 36
1.0
 17
0.0
 27
0.0
 37
0.0
 40
215.9
 41
1.2941176471
 42
50.0
 43
0.0
 44
0.0
 50
0.0
 51
0.0
 71
     0
 72
  2000
 73
     1
 74
     3
 75
     0
 76
     0
 77
     0
 78
     0
281
     0
 65
     1
110
0.0
120
0.0
130
0.0
111
1.0
121
0.0
131
0.0
112
0.0
122
1.0
132
0.0
 79
     0
146
0.0
  0
ENDTAB
  0
TABLE
  2
LTYPE
  5
5
330
0
100
AcDbSymbolTable
 70
     6
  0
LTYPE
  5
14
330
5
100
AcDbSymbolTableRecord
100
AcDbLinetypeTableRecord
  2
ByBlock
 70
     0
  3

 72
    65
 73
     0
 40
0.0
  0
LTYPE
  5
15
330
5
100
AcDbSymbolTableRecord
100
AcDbLinetypeTableRecord
  2
ByLayer
 70
     0
  3

 72
    65
 73
     0
 40
0.0
  0
LTYPE
  5
16
330
5
100
AcDbSymbolTableRecord
100
AcDbLinetypeTableRecord
  2
Continuous
 70
     0
  3
Solid line
 72
    65
 73
     0
 40
0.0
  0
LTYPE
  5
6E
330
5
100
AcDbSymbolTableRecord
100
AcDbLinetypeTableRecord
  2
HIDDEN
 70
     0
  3
Hidden __ __ __ __ __ __ __ __ __ __ __ __ __ __
 72
    65
 73
     2
 40
1.905
 49
1.27
 74
     0
 49
-0.635
 74
     0
  0
LTYPE
  5
6F
330
5
100
AcDbSymbolTableRecord
100
AcDbLinetypeTableRecord
  2
PHANTOM
 70
     0
  3
Phantom ______  __  __  ______  __  __  ______
 72
    65
 73
     6
 40
12.7
 49
6.35
 74
     0
 49
-1.27
 74
     0
 49
1.27
 74
     0
 49
-1.27
 74
     0
 49
1.27
 74
     0
 49
-1.27
 74
     0
  0
LTYPE
  5
70
330
5
100
AcDbSymbolTableRecord
100
AcDbLinetypeTableRecord
  2
CENTER
 70
     0
  3
Center ____ _ ____ _ ____ _ ____ _ ____ _ ____
 72
    65
 73
     4
 40
10.16
 49
6.35
 74
     0
 49
-1.27
 74
     0
 49
1.27
 74
     0
 49
-1.27
 74
     0
  0
LTYPE
  5
71
330
5
100
AcDbSymbolTableRecord
100
AcDbLinetypeTableRecord
  2
CENTERX2
 70
     0
  3
Center (2x) ________  __  ________  __  _____
 72
    65
 73
     4
 40
20.32
 49
12.7
 74
     0
 49
-2.54
 74
     0
 49
2.54
 74
     0
 49
-2.54
 74
     0
  0
LTYPE
  5
72
330
5
100
AcDbSymbolTableRecord
100
AcDbLinetypeTableRecord
  2
DOT2
 70
     0
  3
Dot (.5x) ........................................
 72
    65
 73
     2
 40
0.635
 49
0.0
 74
     0
 49
-0.635
 74
     0
  0
ENDTAB
  0
TABLE
  2
LAYER
  5
2
330
0
100
AcDbSymbolTable
 70
    17
  0
LAYER
  5
10
330
2
100
AcDbSymbolTableRecord
100
AcDbLayerTableRecord
  2
0
 70
     0
 62
     7
  6
Continuous
370
    -3
390
F
  0
LAYER
  5
73
330
2
100
AcDbSymbolTableRecord
100
AcDbLayerTableRecord
  2
FORMAT
 70
     0
 62
     7
  6
Continuous
370
    -3
390
F
  0
LAYER
  5
74
330
2
100
AcDbSymbolTableRecord
100
AcDbLayerTableRecord
  2
YARDIMCI_GEOMETRI
 70
     0
 62
    -6
  6
Continuous
290
     0
370
    -3
390
F
  0
LAYER
  5
75
330
2
100
AcDbSymbolTableRecord
100
AcDbLayerTableRecord
  2
SAYFA_CERCEVESI
 70
     0
 62
     7
  6
Continuous
370
    25
390
F
  0
LAYER
  5
76
330
2
100
AcDbSymbolTableRecord
100
AcDbLayerTableRecord
  2
ANTET
 70
     0
 62
     7
  6
Continuous
370
    -3
390
F
  0
LAYER
  5
77
330
2
100
AcDbSymbolTableRecord
100
AcDbLayerTableRecord
  2
OLCU
 70
     0
 62
   150
  6
Continuous
370
    -3
390
F
  0
LAYER
  5
78
330
2
100
AcDbSymbolTableRecord
100
AcDbLayerTableRecord
  2
METIN
 70
     0
 62
    96
  6
Continuous
370
    -3
390
F
  0
LAYER
  5
79
330
2
100
AcDbSymbolTableRecord
100
AcDbLayerTableRecord
  2
BALON
 70
     0
 62
     5
  6
Continuous
370
    -3
390
F
  0
LAYER
  5
7A
330
2
100
AcDbSymbolTableRecord
100
AcDbLayerTableRecord
  2
VURGU
 70
     0
 62
     7
  6
Continuous
370
    -3
390
F
  0
LAYER
  5
7B
330
2
100
AcDbSymbolTableRecord
100
AcDbLayerTableRecord
  2
SILIK
 70
     0
 62
     7
  6
Continuous
370
    -3
390
F
  0
LAYER
  5
7C
330
2
100
AcDbSymbolTableRecord
100
AcDbLayerTableRecord
  2
MODEL
 70
     0
 62
     7
  6
Continuous
370
    -3
390
F
  0
LAYER
  5
7D
330
2
100
AcDbSymbolTableRecord
100
AcDbLayerTableRecord
  2
DETAYLANDıRMA
 70
     0
 62
   190
  6
Continuous
370
    -3
390
F
  0
LAYER
  5
7E
330
2
100
AcDbSymbolTableRecord
100
AcDbLayerTableRecord
  2
TOLERANS
 70
     0
 62
   230
  6
Continuous
370
    -3
390
F
  0
LAYER
  5
7F
330
2
100
AcDbSymbolTableRecord
100
AcDbLayerTableRecord
  2
MERKEZ_CIZGILERI
 70
     0
 62
    30
  6
Continuous
370
    -3
390
F
  0
LAYER
  5
80
330
2
100
AcDbSymbolTableRecord
100
AcDbLayerTableRecord
  2
KESIT-DETAY_CIZGILERI
 70
     0
 62
     7
  6
Continuous
370
    -3
390
F
  0
LAYER
  5
81
330
2
100
AcDbSymbolTableRecord
100
AcDbLayerTableRecord
  2
\U+041E\U+0421\U+0415\U+0412\U+042B\U+0415
 70
     0
 62
     7
  6
Continuous
370
    -3
390
F
  0
LAYER
  5
82
330
2
100
AcDbSymbolTableRecord
100
AcDbLayerTableRecord
  2
\U+0412\U+041E\U+0414\U+042F\U+041D\U+042B\U+0415_\U+0417\U+041D\U+0410\U+041A\U+0418
 70
     0
 62
    11
  6
Continuous
370
    -3
390
F
  0
ENDTAB
  0
TABLE
  2
STYLE
  5
3
330
0
100
AcDbSymbolTable
 70
     1
  0
STYLE
  5
11
330
3
100
AcDbSymbolTableRecord
100
AcDbTextStyleTableRecord
  2
Standard
 70
     0
 40
0.0
 41
1.0
 50
0.0
 71
     0
 42
3.5
  3
txt
  4

  0
ENDTAB
  0
TABLE
  2
VIEW
  5
6
330
0
100
AcDbSymbolTable
 70
     0
  0
ENDTAB
  0
TABLE
  2
UCS
  5
7
330
0
100
AcDbSymbolTable
 70
     0
  0
ENDTAB
  0
TABLE
  2
APPID
  5
9
330
0
100
AcDbSymbolTable
 70
     1
  0
APPID
  5
12
330
9
100
AcDbSymbolTableRecord
100
AcDbRegAppTableRecord
  2
ACAD
 70
     0
  0
ENDTAB
  0
TABLE
  2
DIMSTYLE
  5
A
330
0
100
AcDbSymbolTable
 70
     1
100
AcDbDimStyleTable
  0
DIMSTYLE
105
27
330
A
100
AcDbSymbolTableRecord
100
AcDbDimStyleTableRecord
  2
ISO-25
 70
     0
 41
2.5
 42
0.625
 43
3.75
 44
1.25
 73
     0
 74
     0
 77
     1
 78
     8
140
2.5
141
2.5
143
0.0393700787
147
0.625
171
     3
172
     1
178
     0
271
     2
272
     2
274
     3
278
    44
283
     0
284
     8
340
11
  0
ENDTAB
  0
TABLE
  2
BLOCK_RECORD
  5
1
330
0
100
AcDbSymbolTable
 70
     2
  0
BLOCK_RECORD
  5
1F
330
1
100
AcDbSymbolTableRecord
100
AcDbBlockTableRecord
  2
*Model_Space
340
22
  0
BLOCK_RECORD
  5
1B
330
1
100
AcDbSymbolTableRecord
100
AcDbBlockTableRecord
  2
*Paper_Space
340
1E
  0
BLOCK_RECORD
  5
23
330
1
100
AcDbSymbolTableRecord
100
AcDbBlockTableRecord
  2
*Paper_Space0
340
26
  0
BLOCK_RECORD
  5
87
330
1
100
AcDbSymbolTableRecord
100
AcDbBlockTableRecord
  2
SW_CENTERMARKSYMBOL_0
340
0
102
{BLKREFS
331
92
102
}
  0
ENDTAB
  0
ENDSEC
  0
SECTION
  2
BLOCKS
  0
BLOCK
  5
20
330
1F
100
AcDbEntity
  8
0
100
AcDbBlockBegin
  2
*Model_Space
 70
     0
 10
0.0
 20
0.0
 30
0.0
  3
*Model_Space
  1

  0
ENDBLK
  5
21
330
1F
100
AcDbEntity
  8
0
100
AcDbBlockEnd
  0
BLOCK
  5
1C
330
1B
100
AcDbEntity
 67
     1
  8
0
100
AcDbBlockBegin
  2
*Paper_Space
 70
     0
 10
0.0
 20
0.0
 30
0.0
  3
*Paper_Space
  1

  0
ENDBLK
  5
1D
330
1B
100
AcDbEntity
 67
     1
  8
0
100
AcDbBlockEnd
  0
BLOCK
  5
24
330
23
100
AcDbEntity
  8
0
100
AcDbBlockBegin
  2
*Paper_Space0
 70
     0
 10
0.0
 20
0.0
 30
0.0
  3
*Paper_Space0
  1

  0
ENDBLK
  5
25
330
23
100
AcDbEntity
  8
0
100
AcDbBlockEnd
  0
BLOCK
  5
88
330
87
100
AcDbEntity
  8
0
100
AcDbBlockBegin
  2
SW_CENTERMARKSYMBOL_0
 70
     0
 10
0.0
 20
0.0
 30
0.0
  3
SW_CENTERMARKSYMBOL_0
  1

  0
LINE
  5
8A
330
87
100
AcDbEntity
  8
FORMAT
 62
     0
100
AcDbLine
 10
0.0
 20
0.0
 30
0.0
 11
0.0
 21
2.5
 31
0.0
  0
LINE
  5
8B
330
87
100
AcDbEntity
  8
FORMAT
 62
     0
100
AcDbLine
 10
0.0
 20
0.0
 30
0.0
 11
-2.5
 21
0.0
 31
0.0
  0
LINE
  5
8C
330
87
100
AcDbEntity
  8
FORMAT
 62
     0
100
AcDbLine
 10
0.0
 20
0.0
 30
0.0
 11
0.0
 21
-2.5
 31
0.0
  0
LINE
  5
8D
330
87
100
AcDbEntity
  8
FORMAT
 62
     0
100
AcDbLine
 10
0.0
 20
0.0
 30
0.0
 11
2.5
 21
0.0
 31
0.0
  0
LINE
  5
8E
330
87
100
AcDbEntity
  8
FORMAT
 62
     0
100
AcDbLine
 10
0.0
 20
5.0
 30
0.0
 11
0.0
 21
40.0
 31
0.0
  0
LINE
  5
8F
330
87
100
AcDbEntity
  8
FORMAT
 62
     0
100
AcDbLine
 10
-5.0
 20
0.0
 30
0.0
 11
-40.0
 21
0.0
 31
0.0
  0
LINE
  5
90
330
87
100
AcDbEntity
  8
FORMAT
 62
     0
100
AcDbLine
 10
0.0
 20
-5.0
 30
0.0
 11
0.0
 21
-40.0
 31
0.0
  0
LINE
  5
91
330
87
100
AcDbEntity
  8
FORMAT
 62
     0
100
AcDbLine
 10
5.0
 20
0.0
 30
0.0
 11
40.0
 21
0.0
 31
0.0
  0
ENDBLK
  5
89
330
87
100
AcDbEntity
  8
0
100
AcDbBlockEnd
  0
ENDSEC
  0
SECTION
  2
ENTITIES
  0
CIRCLE
  5
83
330
1F
100
AcDbEntity
  8
0
  6
Continuous
 62
     7
370
    25
100
AcDbCircle
 10
139.8323425481
 20
108.7440552885
 30
0.0
 40
37.50000000000001
  0
CIRCLE
  5
84
330
1F
100
AcDbEntity
  8
0
  6
Continuous
 62
     7
370
    25
100
AcDbCircle
 10
139.8323425481
 20
108.7440552885
 30
0.0
 40
30.70000000000002
  0
CIRCLE
  5
85
330
1F
100
AcDbEntity
  8
0
  6
Continuous
 62
     7
370
    25
100
AcDbCircle
 10
139.8323425481
 20
108.7440552885
 30
0.0
 40
50.5
  0
CIRCLE
  5
86
330
1F
100
AcDbEntity
  8
0
  6
Continuous
 62
     7
370
    25
100
AcDbCircle
 10
139.8323425481
 20
108.7440552885
 30
0.0
 40
51.00000000000003
  0
INSERT
  5
92
330
1F
100
AcDbEntity
  8
FORMAT
 62
     7
100
AcDbBlockReference
  2
SW_CENTERMARKSYMBOL_0
 10
139.8323425481
 20
108.7440552885
 30
0.0
  0
LINE
  5
93
330
1F
100
AcDbEntity
  8
0
  6
Continuous
 62
     7
370
    25
100
AcDbLine
 10
190.8323425481
 20
240.876433931
 30
0.0
 11
190.8323425481
 21
276.376433931
 31
0.0
  0
LINE
  5
94
330
1F
100
AcDbEntity
  8
0
  6
Continuous
 62
     7
370
    25
100
AcDbLine
 10
88.8323425481
 20
276.376433931
 30
0.0
 11
88.8323425481
 21
240.876433931
 31
0.0
  0
ARC
  5
95
330
1F
100
AcDbEntity
  8
0
  6
Continuous
 62
     7
370
    25
100
AcDbCircle
 10
190.3323425481
 20
276.376433931
 30
0.0
 40
0.5
100
AcDbArc
 50
0.0
 51
90.0
  0
ARC
  5
96
330
1F
100
AcDbEntity
  8
0
  6
Continuous
 62
     7
370
    25
100
AcDbCircle
 10
89.3323425481
 20
276.376433931
 30
0.0
 40
0.5000000000000142
100
AcDbArc
 50
90.0
 51
180.0
  0
LINE
  5
97
330
1F
100
AcDbEntity
  8
0
  6
Continuous
 62
     7
370
    25
100
AcDbLine
 10
102.2423425481
 20
202.876433931
 30
0.0
 11
103.9743933556
 21
201.876433931
 31
0.0
  0
LINE
  5
98
330
1F
100
AcDbEntity
  8
0
  6
Continuous
 62
     7
370
    25
100
AcDbLine
 10
175.6902917405
 20
201.876433931
 30
0.0
 11
177.4223425481
 21
202.876433931
 31
0.0
  0
LINE
  5
99
330
1F
100
AcDbEntity
  8
0
  6
Continuous
 62
     7
370
    25
100
AcDbLine
 10
102.2423425481
 20
204.876433931
 30
0.0
 11
103.9743933556
 21
203.876433931
 31
0.0
  0
LINE
  5
9A
330
1F
100
AcDbEntity
  8
0
  6
Continuous
 62
     7
370
    25
100
AcDbLine
 10
175.6902917405
 20
203.876433931
 30
0.0
 11
177.4223425481
 21
204.876433931
 31
0.0
  0
LINE
  5
9B
330
1F
100
AcDbEntity
  8
0
  6
Continuous
 62
     7
370
    25
100
AcDbLine
 10
177.4223425481
 20
202.876433931
 30
0.0
 11
175.6902917405
 21
203.876433931
 31
0.0
  0
LINE
  5
9C
330
1F
100
AcDbEntity
  8
0
  6
Continuous
 62
     7
370
    25
100
AcDbLine
 10
103.9743933556
 20
203.876433931
 30
0.0
 11
102.2423425481
 21
202.876433931
 31
0.0
  0
LINE
  5
9D
330
1F
100
AcDbEntity
  8
0
  6
Continuous
 62
     7
370
    25
100
AcDbLine
 10
177.4223425481
 20
204.876433931
 30
0.0
 11
175.6902917405
 21
205.876433931
 31
0.0
  0
LINE
  5
9E
330
1F
100
AcDbEntity
  8
0
  6
Continuous
 62
     7
370
    25
100
AcDbLine
 10
103.9743933556
 20
205.876433931
 30
0.0
 11
102.2423425481
 21
204.876433931
 31
0.0
  0
LINE
  5
9F
330
1F
100
AcDbEntity
  8
0
  6
Continuous
 62
     7
370
    25
100
AcDbLine
 10
102.2423425481
 20
206.876433931
 30
0.0
 11
103.9743933556
 21
205.876433931
 31
0.0
  0
LINE
  5
A0
330
1F
100
AcDbEntity
  8
0
  6
Continuous
 62
     7
370
    25
100
AcDbLine
 10
175.6902917405
 20
205.876433931
 30
0.0
 11
177.4223425481
 21
206.876433931
 31
0.0
  0
LINE
  5
A1
330
1F
100
AcDbEntity
  8
0
  6
Continuous
 62
     7
370
    25
100
AcDbLine
 10
177.4223425481
 20
206.876433931
 30
0.0
 11
175.6902917405
 21
207.876433931
 31
0.0
  0
LINE
  5
A2
330
1F
100
AcDbEntity
  8
0
  6
Continuous
 62
     7
370
    25
100
AcDbLine
 10
103.9743933556
 20
207.876433931
 30
0.0
 11
102.2423425481
 21
206.876433931
 31
0.0
  0
LINE
  5
A3
330
1F
100
AcDbEntity
  8
0
  6
Continuous
 62
     7
370
    25
100
AcDbLine
 10
102.2423425481
 20
208.876433931
 30
0.0
 11
103.9743933556
 21
207.876433931
 31
0.0
  0
LINE
  5
A4
330
1F
100
AcDbEntity
  8
0
  6
Continuous
 62
     7
370
    25
100
AcDbLine
 10
175.6902917405
 20
207.876433931
 30
0.0
 11
177.4223425481
 21
208.876433931
 31
0.0
  0
LINE
  5
A5
330
1F
100
AcDbEntity
  8
0
  6
Continuous
 62
     7
370
    25
100
AcDbLine
 10
177.4223425481
 20
208.876433931
 30
0.0
 11
177.4223425481
 21
224.876433931
 31
0.0
  0
LINE
  5
A6
330
1F
100
AcDbEntity
  8
0
  6
Continuous
 62
     7
370
    25
100
AcDbLine
 10
102.2423425481
 20
224.876433931
 30
0.0
 11
102.2423425481
 21
208.876433931
 31
0.0
  0
LINE
  5
A7
330
1F
100
AcDbEntity
  8
0
  6
Continuous
 62
     7
370
    25
100
AcDbLine
 10
177.3323425481
 20
276.876433931
 30
0.0
 11
177.3323425481
 21
347.876433931
 31
0.0
  0
LINE
  5
A8
330
1F
100
AcDbEntity
  8
0
  6
Continuous
 62
     7
370
    25
100
AcDbLine
 10
102.3323425481
 20
347.876433931
 30
0.0
 11
102.3323425481
 21
276.876433931
 31
0.0
  0
LINE
  5
A9
330
1F
100
AcDbEntity
  8
0
  6
Continuous
 62
     7
370
    25
100
AcDbLine
 10
190.8323425481
 20
240.876433931
 30
0.0
 11
88.8323425481
 21
240.876433931
 31
0.0
  0
LINE
  5
AA
330
1F
100
AcDbEntity
  8
0
  6
Continuous
 62
     7
370
    25
100
AcDbLine
 10
190.3323425459
 20
276.876433931
 30
0.0
 11
89.3323425481
 21
276.876433931
 31
0.0
  0
LINE
  5
AB
330
1F
100
AcDbEntity
  8
0
  6
Continuous
 62
     7
370
    25
100
AcDbLine
 10
100.8323425481
 20
240.876433931
 30
0.0
 11
100.8323425481
 21
224.876433931
 31
0.0
  0
LINE
  5
AC
330
1F
100
AcDbEntity
  8
0
  6
Continuous
 62
     7
370
    25
100
AcDbLine
 10
139.8323425481
 20
240.876433931
 30
0.0
 11
139.8323425481
 21
224.876433931
 31
0.0
  0
LINE
  5
AD
330
1F
100
AcDbEntity
  8
0
  6
Continuous
 62
     7
370
    25
100
AcDbLine
 10
100.8323425481
 20
224.876433931
 30
0.0
 11
139.8323425481
 21
224.876433931
 31
0.0
  0
LINE
  5
AE
330
1F
100
AcDbEntity
  8
0
  6
Continuous
 62
     7
370
    25
100
AcDbLine
 10
178.8323425481
 20
240.876433931
 30
0.0
 11
178.8323425481
 21
224.876433931
 31
0.0
  0
LINE
  5
AF
330
1F
100
AcDbEntity
  8
0
  6
Continuous
 62
     7
370
    25
100
AcDbLine
 10
139.8323425481
 20
224.876433931
 30
0.0
 11
178.8323425481
 21
224.876433931
 31
0.0
  0
LINE
  5
B0
330
1F
100
AcDbEntity
  8
0
  6
Continuous
 62
     7
370
    25
100
AcDbLine
 10
177.4223425481
 20
202.876433931
 30
0.0
 11
102.2423425481
 21
202.876433931
 31
0.0
  0
LINE
  5
B1
330
1F
100
AcDbEntity
  8
0
  6
Continuous
 62
     7
370
    25
100
AcDbLine
 10
175.6902917405
 20
201.876433931
 30
0.0
 11
103.9743933556
 21
201.876433931
 31
0.0
  0
LINE
  5
B2
330
1F
100
AcDbEntity
  8
0
  6
Continuous
 62
     7
370
    25
100
AcDbLine
 10
177.4223425481
 20
204.876433931
 30
0.0
 11
102.2423425481
 21
204.876433931
 31
0.0
  0
LINE
  5
B3
330
1F
100
AcDbEntity
  8
0
  6
Continuous
 62
     7
370
    25
100
AcDbLine
 10
175.6902917405
 20
203.876433931
 30
0.0
 11
103.9743933556
 21
203.876433931
 31
0.0
  0
LINE
  5
B4
330
1F
100
AcDbEntity
  8
0
  6
Continuous
 62
     7
370
    25
100
AcDbLine
 10
175.6902917405
 20
205.876433931
 30
0.0
 11
103.9743933556
 21
205.876433931
 31
0.0
  0
LINE
  5
B5
330
1F
100
AcDbEntity
  8
0
  6
Continuous
 62
     7
370
    25
100
AcDbLine
 10
177.4223425481
 20
206.876433931
 30
0.0
 11
102.2423425481
 21
206.876433931
 31
0.0
  0
LINE
  5
B6
330
1F
100
AcDbEntity
  8
0
  6
Continuous
 62
     7
370
    25
100
AcDbLine
 10
175.6902917405
 20
207.876433931
 30
0.0
 11
103.9743933556
 21
207.876433931
 31
0.0
  0
LINE
  5
B7
330
1F
100
AcDbEntity
  8
0
  6
Continuous
 62
     7
370
    25
100
AcDbLine
 10
177.4223425481
 20
208.876433931
 30
0.0
 11
102.2423425481
 21
208.876433931
 31
0.0
  0
LINE
  5
B8
330
1F
100
AcDbEntity
  8
0
  6
Continuous
 62
     7
370
    25
100
AcDbLine
 10
177.3323425481
 20
347.876433931
 30
0.0
 11
102.3323425481
 21
347.876433931
 31
0.0
  0
LINE
  5
B9
330
1F
100
AcDbEntity
  8
0
  6
Continuous
 62
     1
370
    25
100
AcDbLine
 10
190.8323425481
 20
276.376433931
 30
0.0
 11
88.8323425481
 21
276.376433931
 31
0.0
  0
LINE
  5
BA
330
1F
100
AcDbEntity
  8
0
  6
Continuous
 62
     7
370
    25
100
AcDbLine
 10
308.5446868903
 20
57.7440552885
 30
0.0
 11
344.0446868903
 21
57.7440552885
 31
0.0
  0
LINE
  5
BB
330
1F
100
AcDbEntity
  8
0
  6
Continuous
 62
     7
370
    25
100
AcDbLine
 10
344.0446868903
 20
159.7440552885
 30
0.0
 11
308.5446868903
 21
159.7440552885
 31
0.0
  0
ARC
  5
BC
330
1F
100
AcDbEntity
  8
0
  6
Continuous
 62
     7
370
    25
100
AcDbCircle
 10
344.0446868903
 20
58.2440552885
 30
0.0
 40
0.5000000000000071
100
AcDbArc
 50
270.0
 51
0.0
  0
ARC
  5
BD
330
1F
100
AcDbEntity
  8
0
  6
Continuous
 62
     7
370
    25
100
AcDbCircle
 10
344.0446868903
 20
159.2440552885
 30
0.0
 40
0.5
100
AcDbArc
 50
360.0
 51
90.0
  0
LINE
  5
BE
330
1F
100
AcDbEntity
  8
0
  6
Continuous
 62
     7
370
    25
100
AcDbLine
 10
270.5446868903
 20
146.3340552885
 30
0.0
 11
269.5446868903
 21
144.6020044809
 31
0.0
  0
LINE
  5
BF
330
1F
100
AcDbEntity
  8
0
  6
Continuous
 62
     7
370
    25
100
AcDbLine
 10
269.5446868903
 20
72.886106096
 30
0.0
 11
270.5446868903
 21
71.1540552885
 31
0.0
  0
LINE
  5
C0
330
1F
100
AcDbEntity
  8
0
  6
Continuous
 62
     7
370
    25
100
AcDbLine
 10
272.5446868903
 20
146.3340552885
 30
0.0
 11
271.5446868903
 21
144.6020044809
 31
0.0
  0
LINE
  5
C1
330
1F
100
AcDbEntity
  8
0
  6
Continuous
 62
     7
370
    25
100
AcDbLine
 10
271.5446868903
 20
72.886106096
 30
0.0
 11
272.5446868903
 21
71.1540552885
 31
0.0
  0
LINE
  5
C2
330
1F
100
AcDbEntity
  8
0
  6
Continuous
 62
     7
370
    25
100
AcDbLine
 10
270.5446868903
 20
71.1540552885
 30
0.0
 11
271.5446868903
 21
72.886106096
 31
0.0
  0
LINE
  5
C3
330
1F
100
AcDbEntity
  8
0
  6
Continuous
 62
     7
370
    25
100
AcDbLine
 10
271.5446868903
 20
144.6020044809
 30
0.0
 11
270.5446868903
 21
146.3340552885
 31
0.0
  0
LINE
  5
C4
330
1F
100
AcDbEntity
  8
0
  6
Continuous
 62
     7
370
    25
100
AcDbLine
 10
272.5446868903
 20
71.1540552885
 30
0.0
 11
273.5446868903
 21
72.886106096
 31
0.0
  0
LINE
  5
C5
330
1F
100
AcDbEntity
  8
0
  6
Continuous
 62
     7
370
    25
100
AcDbLine
 10
273.5446868903
 20
144.6020044809
 30
0.0
 11
272.5446868903
 21
146.3340552885
 31
0.0
  0
LINE
  5
C6
330
1F
100
AcDbEntity
  8
0
  6
Continuous
 62
     7
370
    25
100
AcDbLine
 10
274.5446868903
 20
146.3340552885
 30
0.0
 11
273.5446868903
 21
144.6020044809
 31
0.0
  0
LINE
  5
C7
330
1F
100
AcDbEntity
  8
0
  6
Continuous
 62
     7
370
    25
100
AcDbLine
 10
273.5446868903
 20
72.886106096
 30
0.0
 11
274.5446868903
 21
71.1540552885
 31
0.0
  0
LINE
  5
C8
330
1F
100
AcDbEntity
  8
0
  6
Continuous
 62
     7
370
    25
100
AcDbLine
 10
274.5446868903
 20
71.1540552885
 30
0.0
 11
275.5446868903
 21
72.886106096
 31
0.0
  0
LINE
  5
C9
330
1F
100
AcDbEntity
  8
0
  6
Continuous
 62
     7
370
    25
100
AcDbLine
 10
275.5446868903
 20
144.6020044809
 30
0.0
 11
274.5446868903
 21
146.3340552885
 31
0.0
  0
LINE
  5
CA
330
1F
100
AcDbEntity
  8
0
  6
Continuous
 62
     7
370
    25
100
AcDbLine
 10
276.5446868903
 20
146.3340552885
 30
0.0
 11
275.5446868903
 21
144.6020044809
 31
0.0
  0
LINE
  5
CB
330
1F
100
AcDbEntity
  8
0
  6
Continuous
 62
     7
370
    25
100
AcDbLine
 10
275.5446868903
 20
72.886106096
 30
0.0
 11
276.5446868903
 21
71.1540552885
 31
0.0
  0
LINE
  5
CC
330
1F
100
AcDbEntity
  8
0
  6
Continuous
 62
     7
370
    25
100
AcDbLine
 10
276.5446868903
 20
71.1540552885
 30
0.0
 11
292.5446868903
 21
71.1540552885
 31
0.0
  0
LINE
  5
CD
330
1F
100
AcDbEntity
  8
0
  6
Continuous
 62
     7
370
    25
100
AcDbLine
 10
292.5446868903
 20
146.3340552885
 30
0.0
 11
276.5446868903
 21
146.3340552885
 31
0.0
  0
LINE
  5
CE
330
1F
100
AcDbEntity
  8
0
  6
Continuous
 62
     7
370
    25
100
AcDbLine
 10
344.5446868903
 20
71.2440552885
 30
0.0
 11
415.5446868903
 21
71.2440552885
 31
0.0
  0
LINE
  5
CF
330
1F
100
AcDbEntity
  8
0
  6
Continuous
 62
     7
370
    25
100
AcDbLine
 10
415.5446868903
 20
146.2440552885
 30
0.0
 11
344.5446868903
 21
146.2440552885
 31
0.0
  0
LINE
  5
D0
330
1F
100
AcDbEntity
  8
0
  6
Continuous
 62
     7
370
    25
100
AcDbLine
 10
308.5446868903
 20
108.7440552885
 30
0.0
 11
308.5446868903
 21
159.7440552885
 31
0.0
  0
LINE
  5
D1
330
1F
100
AcDbEntity
  8
0
  6
Continuous
 62
     7
370
    25
100
AcDbLine
 10
308.5446868903
 20
57.7440552885
 30
0.0
 11
308.5446868903
 21
108.7440552885
 31
0.0
  0
LINE
  5
D2
330
1F
100
AcDbEntity
  8
0
  6
Continuous
 62
     7
370
    25
100
AcDbLine
 10
344.5446868903
 20
108.7440552885
 30
0.0
 11
344.5446868903
 21
159.2440552885
 31
0.0
  0
LINE
  5
D3
330
1F
100
AcDbEntity
  8
0
  6
Continuous
 62
     7
370
    25
100
AcDbLine
 10
344.5446868903
 20
58.2440552885
 30
0.0
 11
344.5446868903
 21
108.7440552885
 31
0.0
  0
LINE
  5
D4
330
1F
100
AcDbEntity
  8
0
  6
Continuous
 62
     7
370
    25
100
AcDbLine
 10
308.5446868903
 20
86.2273947901
 30
0.0
 11
292.5446868903
 21
86.2273947901
 31
0.0
  0
LINE
  5
D5
330
1F
100
AcDbEntity
  8
0
  6
Continuous
 62
     7
370
    25
100
AcDbLine
 10
308.5446868903
 20
63.7107342917
 30
0.0
 11
292.5446868903
 21
63.7107342917
 31
0.0
  0
LINE
  5
D6
330
1F
100
AcDbEntity
  8
0
  6
Continuous
 62
     7
370
    25
100
AcDbLine
 10
292.5446868903
 20
86.2273947901
 30
0.0
 11
292.5446868903
 21
63.7107342917
 31
0.0
  0
LINE
  5
D7
330
1F
100
AcDbEntity
  8
0
  6
Continuous
 62
     7
370
    25
100
AcDbLine
 10
308.5446868903
 20
131.2607157869
 30
0.0
 11
292.5446868903
 21
131.2607157869
 31
0.0
  0
LINE
  5
D8
330
1F
100
AcDbEntity
  8
0
  6
Continuous
 62
     7
370
    25
100
AcDbLine
 10
292.5446868903
 20
131.2607157869
 30
0.0
 11
292.5446868903
 21
86.2273947901
 31
0.0
  0
LINE
  5
D9
330
1F
100
AcDbEntity
  8
0
  6
Continuous
 62
     7
370
    25
100
AcDbLine
 10
308.5446868903
 20
153.7773762853
 30
0.0
 11
292.5446868903
 21
153.7773762853
 31
0.0
  0
LINE
  5
DA
330
1F
100
AcDbEntity
  8
0
  6
Continuous
 62
     7
370
    25
100
AcDbLine
 10
292.5446868903
 20
153.7773762853
 30
0.0
 11
292.5446868903
 21
131.2607157869
 31
0.0
  0
LINE
  5
DB
330
1F
100
AcDbEntity
  8
0
  6
Continuous
 62
     7
370
    25
100
AcDbLine
 10
270.5446868903
 20
108.7440552885
 30
0.0
 11
270.5446868903
 21
146.3340552885
 31
0.0
  0
LINE
  5
DC
330
1F
100
AcDbEntity
  8
0
  6
Continuous
 62
     7
370
    25
100
AcDbLine
 10
270.5446868903
 20
71.1540552885
 30
0.0
 11
270.5446868903
 21
108.7440552885
 31
0.0
  0
LINE
  5
DD
330
1F
100
AcDbEntity
  8
0
  6
Continuous
 62
     7
370
    25
100
AcDbLine
 10
269.5446868903
 20
108.7440552885
 30
0.0
 11
269.5446868903
 21
144.6020044809
 31
0.0
  0
LINE
  5
DE
330
1F
100
AcDbEntity
  8
0
  6
Continuous
 62
     7
370
    25
100
AcDbLine
 10
269.5446868903
 20
72.886106096
 30
0.0
 11
269.5446868903
 21
108.7440552885
 31
0.0
  0
LINE
  5
DF
330
1F
100
AcDbEntity
  8
0
  6
Continuous
 62
     7
370
    25
100
AcDbLine
 10
272.5446868903
 20
108.7440552885
 30
0.0
 11
272.5446868903
 21
146.3340552885
 31
0.0
  0
LINE
  5
E0
330
1F
100
AcDbEntity
  8
0
  6
Continuous
 62
     7
370
    25
100
AcDbLine
 10
272.5446868903
 20
71.1540552885
 30
0.0
 11
272.5446868903
 21
108.7440552885
 31
0.0
  0
LINE
  5
E1
330
1F
100
AcDbEntity
  8
0
  6
Continuous
 62
     7
370
    25
100
AcDbLine
 10
271.5446868903
 20
108.7440552885
 30
0.0
 11
271.5446868903
 21
144.6020044809
 31
0.0
  0
LINE
  5
E2
330
1F
100
AcDbEntity
  8
0
  6
Continuous
 62
     7
370
    25
100
AcDbLine
 10
271.5446868903
 20
72.886106096
 30
0.0
 11
271.5446868903
 21
108.7440552885
 31
0.0
  0
LINE
  5
E3
330
1F
100
AcDbEntity
  8
0
  6
Continuous
 62
     7
370
    25
100
AcDbLine
 10
273.5446868903
 20
108.7440552885
 30
0.0
 11
273.5446868903
 21
144.6020044809
 31
0.0
  0
LINE
  5
E4
330
1F
100
AcDbEntity
  8
0
  6
Continuous
 62
     7
370
    25
100
AcDbLine
 10
273.5446868903
 20
72.886106096
 30
0.0
 11
273.5446868903
 21
108.7440552885
 31
0.0
  0
LINE
  5
E5
330
1F
100
AcDbEntity
  8
0
  6
Continuous
 62
     7
370
    25
100
AcDbLine
 10
274.5446868903
 20
108.7440552885
 30
0.0
 11
274.5446868903
 21
146.3340552885
 31
0.0
  0
LINE
  5
E6
330
1F
100
AcDbEntity
  8
0
  6
Continuous
 62
     7
370
    25
100
AcDbLine
 10
274.5446868903
 20
71.1540552885
 30
0.0
 11
274.5446868903
 21
108.7440552885
 31
0.0
  0
LINE
  5
E7
330
1F
100
AcDbEntity
  8
0
  6
Continuous
 62
     7
370
    25
100
AcDbLine
 10
275.5446868903
 20
108.7440552885
 30
0.0
 11
275.5446868903
 21
144.6020044809
 31
0.0
  0
LINE
  5
E8
330
1F
100
AcDbEntity
  8
0
  6
Continuous
 62
     7
370
    25
100
AcDbLine
 10
275.5446868903
 20
72.886106096
 30
0.0
 11
275.5446868903
 21
108.7440552885
 31
0.0
  0
LINE
  5
E9
330
1F
100
AcDbEntity
  8
0
  6
Continuous
 62
     7
370
    25
100
AcDbLine
 10
276.5446868903
 20
108.7440552885
 30
0.0
 11
276.5446868903
 21
146.3340552885
 31
0.0
  0
LINE
  5
EA
330
1F
100
AcDbEntity
  8
0
  6
Continuous
 62
     7
370
    25
100
AcDbLine
 10
276.5446868903
 20
71.1540552885
 30
0.0
 11
276.5446868903
 21
108.7440552885
 31
0.0
  0
LINE
  5
EB
330
1F
100
AcDbEntity
  8
0
  6
Continuous
 62
     7
370
    25
100
AcDbLine
 10
415.5446868903
 20
108.7440552885
 30
0.0
 11
415.5446868903
 21
146.2440552885
 31
0.0
  0
LINE
  5
EC
330
1F
100
AcDbEntity
  8
0
  6
Continuous
 62
     7
370
    25
100
AcDbLine
 10
415.5446868903
 20
71.2440552885
 30
0.0
 11
415.5446868903
 21
108.7440552885
 31
0.0
  0
LINE
  5
ED
330
1F
100
AcDbEntity
  8
0
  6
Continuous
 62
     1
370
    25
100
AcDbLine
 10
344.0446868903
 20
108.7440552885
 30
0.0
 11
344.0446868903
 21
159.7440552885
 31
0.0
  0
LINE
  5
EE
330
1F
100
AcDbEntity
  8
0
  6
Continuous
 62
     1
370
    25
100
AcDbLine
 10
344.0446868903
 20
57.7440552885
 30
0.0
 11
344.0446868903
 21
108.7440552885
 31
0.0
  0
LINE
  5
EF
330
1F
100
AcDbEntity
  8
0
  6
Continuous
 62
     7
370
    25
100
AcDbLine
 10
-20.3458811098
 20
159.7440552885
 30
0.0
 11
-55.8458811098
 21
159.7440552885
 31
0.0
  0
LINE
  5
F0
330
1F
100
AcDbEntity
  8
0
  6
Continuous
 62
     7
370
    25
100
AcDbLine
 10
-55.8458811098
 20
57.7440552885
 30
0.0
 11
-20.3458811098
 21
57.7440552885
 31
0.0
  0
ARC
  5
F1
330
1F
100
AcDbEntity
  8
0
  6
Continuous
 62
     7
370
    25
100
AcDbCircle
 10
-55.8458811098
 20
159.2440552885
 30
0.0
 40
0.5
100
AcDbArc
 50
90.0
 51
180.0
  0
ARC
  5
F2
330
1F
100
AcDbEntity
  8
0
  6
Continuous
 62
     7
370
    25
100
AcDbCircle
 10
-55.8458811098
 20
58.2440552885
 30
0.0
 40
0.5000000000000071
100
AcDbArc
 50
180.0
 51
270.0
  0
LINE
  5
F3
330
1F
100
AcDbEntity
  8
0
  6
Continuous
 62
     7
370
    25
100
AcDbLine
 10
17.6541188902
 20
71.1540552885
 30
0.0
 11
18.6541188902
 21
72.886106096
 31
0.0
  0
LINE
  5
F4
330
1F
100
AcDbEntity
  8
0
  6
Continuous
 62
     7
370
    25
100
AcDbLine
 10
18.6541188902
 20
144.6020044809
 30
0.0
 11
17.6541188902
 21
146.3340552885
 31
0.0
  0
LINE
  5
F5
330
1F
100
AcDbEntity
  8
0
  6
Continuous
 62
     7
370
    25
100
AcDbLine
 10
15.6541188902
 20
71.1540552885
 30
0.0
 11
16.6541188902
 21
72.886106096
 31
0.0
  0
LINE
  5
F6
330
1F
100
AcDbEntity
  8
0
  6
Continuous
 62
     7
370
    25
100
AcDbLine
 10
16.6541188902
 20
144.6020044809
 30
0.0
 11
15.6541188902
 21
146.3340552885
 31
0.0
  0
LINE
  5
F7
330
1F
100
AcDbEntity
  8
0
  6
Continuous
 62
     7
370
    25
100
AcDbLine
 10
17.6541188902
 20
146.3340552885
 30
0.0
 11
16.6541188902
 21
144.6020044809
 31
0.0
  0
LINE
  5
F8
330
1F
100
AcDbEntity
  8
0
  6
Continuous
 62
     7
370
    25
100
AcDbLine
 10
16.6541188902
 20
72.886106096
 30
0.0
 11
17.6541188902
 21
71.1540552885
 31
0.0
  0
LINE
  5
F9
330
1F
100
AcDbEntity
  8
0
  6
Continuous
 62
     7
370
    25
100
AcDbLine
 10
15.6541188902
 20
146.3340552885
 30
0.0
 11
14.6541188902
 21
144.6020044809
 31
0.0
  0
LINE
  5
FA
330
1F
100
AcDbEntity
  8
0
  6
Continuous
 62
     7
370
    25
100
AcDbLine
 10
14.6541188902
 20
72.886106096
 30
0.0
 11
15.6541188902
 21
71.1540552885
 31
0.0
  0
LINE
  5
FB
330
1F
100
AcDbEntity
  8
0
  6
Continuous
 62
     7
370
    25
100
AcDbLine
 10
13.6541188902
 20
71.1540552885
 30
0.0
 11
14.6541188902
 21
72.886106096
 31
0.0
  0
LINE
  5
FC
330
1F
100
AcDbEntity
  8
0
  6
Continuous
 62
     7
370
    25
100
AcDbLine
 10
14.6541188902
 20
144.6020044809
 30
0.0
 11
13.6541188902
 21
146.3340552885
 31
0.0
  0
LINE
  5
FD
330
1F
100
AcDbEntity
  8
0
  6
Continuous
 62
     7
370
    25
100
AcDbLine
 10
13.6541188902
 20
146.3340552885
 30
0.0
 11
12.6541188902
 21
144.6020044809
 31
0.0
  0
LINE
  5
FE
330
1F
100
AcDbEntity
  8
0
  6
Continuous
 62
     7
370
    25
100
AcDbLine
 10
12.6541188902
 20
72.886106096
 30
0.0
 11
13.6541188902
 21
71.1540552885
 31
0.0
  0
LINE
  5
FF
330
1F
100
AcDbEntity
  8
0
  6
Continuous
 62
     7
370
    25
100
AcDbLine
 10
11.6541188902
 20
71.1540552885
 30
0.0
 11
12.6541188902
 21
72.886106096
 31
0.0
  0
LINE
  5
100
330
1F
100
AcDbEntity
  8
0
  6
Continuous
 62
     7
370
    25
100
AcDbLine
 10
12.6541188902
 20
144.6020044809
 30
0.0
 11
11.6541188902
 21
146.3340552885
 31
0.0
  0
LINE
  5
101
330
1F
100
AcDbEntity
  8
0
  6
Continuous
 62
     7
370
    25
100
AcDbLine
 10
11.6541188902
 20
146.3340552885
 30
0.0
 11
-4.3458811098
 21
146.3340552885
 31
0.0
  0
LINE
  5
102
330
1F
100
AcDbEntity
  8
0
  6
Continuous
 62
     7
370
    25
100
AcDbLine
 10
-4.3458811098
 20
71.1540552885
 30
0.0
 11
11.6541188902
 21
71.1540552885
 31
0.0
  0
LINE
  5
103
330
1F
100
AcDbEntity
  8
0
  6
Continuous
 62
     7
370
    25
100
AcDbLine
 10
-56.3458811098
 20
146.2440552885
 30
0.0
 11
-127.3458811098
 21
146.2440552885
 31
0.0
  0
LINE
  5
104
330
1F
100
AcDbEntity
  8
0
  6
Continuous
 62
     7
370
    25
100
AcDbLine
 10
-127.3458811098
 20
71.2440552885
 30
0.0
 11
-56.3458811098
 21
71.2440552885
 31
0.0
  0
LINE
  5
105
330
1F
100
AcDbEntity
  8
0
  6
Continuous
 62
     7
370
    25
100
AcDbLine
 10
-20.3458811098
 20
159.7440552885
 30
0.0
 11
-20.3458811098
 21
57.7440552885
 31
0.0
  0
LINE
  5
106
330
1F
100
AcDbEntity
  8
0
  6
Continuous
 62
     7
370
    25
100
AcDbLine
 10
-56.3458811098
 20
159.2440552885
 30
0.0
 11
-56.3458811098
 21
58.2440552885
 31
0.0
  0
LINE
  5
107
330
1F
100
AcDbEntity
  8
0
  6
Continuous
 62
     7
370
    25
100
AcDbLine
 10
-20.3458811098
 20
131.2607157869
 30
0.0
 11
-4.3458811098
 21
131.2607157869
 31
0.0
  0
LINE
  5
108
330
1F
100
AcDbEntity
  8
0
  6
Continuous
 62
     7
370
    25
100
AcDbLine
 10
-20.3458811098
 20
153.7773762853
 30
0.0
 11
-4.3458811098
 21
153.7773762853
 31
0.0
  0
LINE
  5
109
330
1F
100
AcDbEntity
  8
0
  6
Continuous
 62
     7
370
    25
100
AcDbLine
 10
-4.3458811098
 20
131.2607157869
 30
0.0
 11
-4.3458811098
 21
153.7773762853
 31
0.0
  0
LINE
  5
10A
330
1F
100
AcDbEntity
  8
0
  6
Continuous
 62
     7
370
    25
100
AcDbLine
 10
-20.3458811098
 20
86.2273947901
 30
0.0
 11
-4.3458811098
 21
86.2273947901
 31
0.0
  0
LINE
  5
10B
330
1F
100
AcDbEntity
  8
0
  6
Continuous
 62
     7
370
    25
100
AcDbLine
 10
-4.3458811098
 20
86.2273947901
 30
0.0
 11
-4.3458811098
 21
131.2607157869
 31
0.0
  0
LINE
  5
10C
330
1F
100
AcDbEntity
  8
0
  6
Continuous
 62
     7
370
    25
100
AcDbLine
 10
-20.3458811098
 20
63.7107342917
 30
0.0
 11
-4.3458811098
 21
63.7107342917
 31
0.0
  0
LINE
  5
10D
330
1F
100
AcDbEntity
  8
0
  6
Continuous
 62
     7
370
    25
100
AcDbLine
 10
-4.3458811098
 20
63.7107342917
 30
0.0
 11
-4.3458811098
 21
86.2273947901
 31
0.0
  0
LINE
  5
10E
330
1F
100
AcDbEntity
  8
0
  6
Continuous
 62
     7
370
    25
100
AcDbLine
 10
17.6541188902
 20
146.3340552885
 30
0.0
 11
17.6541188902
 21
71.1540552885
 31
0.0
  0
LINE
  5
10F
330
1F
100
AcDbEntity
  8
0
  6
Continuous
 62
     7
370
    25
100
AcDbLine
 10
18.6541188902
 20
144.6020044809
 30
0.0
 11
18.6541188902
 21
72.886106096
 31
0.0
  0
LINE
  5
110
330
1F
100
AcDbEntity
  8
0
  6
Continuous
 62
     7
370
    25
100
AcDbLine
 10
15.6541188902
 20
146.3340552885
 30
0.0
 11
15.6541188902
 21
71.1540552885
 31
0.0
  0
LINE
  5
111
330
1F
100
AcDbEntity
  8
0
  6
Continuous
 62
     7
370
    25
100
AcDbLine
 10
16.6541188902
 20
144.6020044809
 30
0.0
 11
16.6541188902
 21
72.886106096
 31
0.0
  0
LINE
  5
112
330
1F
100
AcDbEntity
  8
0
  6
Continuous
 62
     7
370
    25
100
AcDbLine
 10
14.6541188902
 20
144.6020044809
 30
0.0
 11
14.6541188902
 21
72.886106096
 31
0.0
  0
LINE
  5
113
330
1F
100
AcDbEntity
  8
0
  6
Continuous
 62
     7
370
    25
100
AcDbLine
 10
13.6541188902
 20
146.3340552885
 30
0.0
 11
13.6541188902
 21
71.1540552885
 31
0.0
  0
LINE
  5
114
330
1F
100
AcDbEntity
  8
0
  6
Continuous
 62
     7
370
    25
100
AcDbLine
 10
12.6541188902
 20
144.6020044809
 30
0.0
 11
12.6541188902
 21
72.886106096
 31
0.0
  0
LINE
  5
115
330
1F
100
AcDbEntity
  8
0
  6
Continuous
 62
     7
370
    25
100
AcDbLine
 10
11.6541188902
 20
146.3340552885
 30
0.0
 11
11.6541188902
 21
71.1540552885
 31
0.0
  0
LINE
  5
116
330
1F
100
AcDbEntity
  8
0
  6
Continuous
 62
     7
370
    25
100
AcDbLine
 10
-127.3458811098
 20
146.2440552885
 30
0.0
 11
-127.3458811098
 21
71.2440552885
 31
0.0
  0
LINE
  5
117
330
1F
100
AcDbEntity
  8
0
  6
Continuous
 62
     1
370
    25
100
AcDbLine
 10
-55.8458811098
 20
159.7440552885
 30
0.0
 11
-55.8458811098
 21
57.7440552885
 31
0.0
  0
LINE
  5
118
330
1F
100
AcDbEntity
  8
0
  6
Continuous
 62
     7
370
    25
100
AcDbLine
 10
330.6637678926
 20
-4.6281173879
 30
0.0
 11
280.4591864284
 21
24.3543705818
 31
0.0
  0
LINE
  5
119
330
1F
100
AcDbEntity
  8
0
  6
Continuous
 62
     7
370
    25
100
AcDbLine
 10
242.9622339545
 20
-40.5992940968
 30
0.0
 11
293.1668154187
 21
-69.5817820665
 31
0.0
  0
SPLINE
  5
11A
330
1F
100
AcDbEntity
  8
0
  6
Continuous
 62
     7
370
    25
100
AcDbSpline
210
0.0
220
0.0
230
1.0
 70
     8
 71
     3
 72
    19
 73
    15
 74
     0
 42
0.00000001
 43
0.00000001
 40
0.0
 40
0.0
 40
0.0
 40
0.0
 40
0.0595571252034566
 40
0.1511559939125842
 40
0.2428771647020161
 40
0.3347193613010859
 40
0.4266729527231133
 40
0.518722928080083
 40
0.6108517369031717
 40
0.703041566101756
 40
0.7952758959429866
 40
0.887540376747673
 40
0.9798231719857614
 40
1.0
 40
1.0
 40
1.0
 40
1.0
 10
332.0640768345873
 20
8.93275990042592
 30
0.0
 10
331.7364433514837
 20
8.994518353014035
 30
0.0
 10
330.9049095155508
 20
9.15126131620387
 30
0.0
 10
329.5165922800246
 20
9.271738751440072
 30
0.0
 10
327.9097867915298
 20
9.30959388249552
 30
0.0
 10
326.2619238850219
 20
9.22681084919836
 30
0.0
 10
324.5795503318693
 20
9.029366314717285
 30
0.0
 10
322.8662883760986
 20
8.716023953345829
 30
0.0
 10
321.1267011978069
 20
8.28816800444649
 30
0.0
 10
319.3651847474455
 20
7.745952103421903
 30
0.0
 10
317.5863083810244
 20
7.093838708823248
 30
0.0
 10
315.7943735547293
 20
6.322215456261486
 30
0.0
 10
314.4634994002963
 20
5.695932744798994
 30
0.0
 10
313.7309317551982
 20
5.294837516669419
 30
0.0
 10
313.5994988821681
 20
5.222875427510133
 30
0.0
  0
SPLINE
  5
11B
330
1F
100
AcDbEntity
  8
0
  6
Continuous
 62
     7
370
    25
100
AcDbSpline
210
0.0
220
0.0
230
1.0
 70
     8
 71
     3
 72
    19
 73
    15
 74
     0
 42
0.00000001
 43
0.00000001
 40
0.0
 40
0.0
 40
0.0
 40
0.0
 40
0.0595920921884395
 40
0.1519410177596597
 40
0.2442879119800442
 40
0.3366243304101957
 40
0.4289396062834591
 40
0.5212203931674337
 40
0.6134507485887014
 40
0.7056126605881129
 40
0.7976871972212976
 40
0.8896564051248629
 40
0.9815059344393146
 40
1.0
 40
1.0
 40
1.0
 40
1.0
 10
276.1052951993698
 20
-59.7323760943396
 30
0.0
 10
276.1219511538251
 20
-60.17080036194998
 30
0.0
 10
276.1644185782563
 20
-61.28864380367055
 30
0.0
 10
276.3350897073747
 20
-63.0207052896905
 30
0.0
 10
276.6048004437212
 20
-64.93008998447996
 30
0.0
 10
276.9674454172287
 20
-66.76907647720631
 30
0.0
 10
277.4175761563514
 20
-68.53585065311573
 30
0.0
 10
277.9554365623145
 20
-70.22504456187121
 30
0.0
 10
278.5792250711006
 20
-71.83269132509784
 30
0.0
 10
279.2880575970133
 20
-73.35373129196645
 30
0.0
 10
280.0777898460335
 20
-74.78716139979052
 30
0.0
 10
280.9547084758987
 20
-76.1181331027613
 30
0.0
 10
281.6377942005435
 20
-77.04796016745314
 30
0.0
 10
282.0510583458304
 20
-77.50207796198774
 30
0.0
 10
282.1203232107777
 20
-77.57819007591607
 30
0.0
  0
LINE
  5
11C
330
1F
100
AcDbEntity
  8
0
  6
Continuous
 62
     7
370
    25
100
AcDbLine
 10
362.8690634606
 20
-7.6318037586
 30
0.0
 11
337.7667727285
 21
6.8594402263
 31
0.0
  0
LINE
  5
11D
330
1F
100
AcDbEntity
  8
0
  6
Continuous
 62
     7
370
    25
100
AcDbLine
 10
286.770917364
 20
-81.4775437366
 30
0.0
 11
311.8732080962
 21
-95.9687877214
 31
0.0
  0
LINE
  5
11E
330
1F
100
AcDbEntity
  8
0
  6
Continuous
 62
     7
370
    25
100
AcDbLine
 10
378.7920253563
 20
-32.3080487923
 30
0.0
 11
376.2620087436
 21
-30.8475012905
 31
0.0
  0
LINE
  5
11F
330
1F
100
AcDbEntity
  8
0
  6
Continuous
 62
     7
370
    25
100
AcDbLine
 10
335.8126928046
 20
-94.3046432859
 30
0.0
 11
341.2050801965
 21
-97.4176022661
 31
0.0
  0
LWPOLYLINE
  5
120
330
1F
100
AcDbEntity
  8
0
  6
Continuous
 62
     7
370
    25
100
AcDbPolyline
 90
       93
 70
   128
 43
0.0
 10
240.002532009
 20
-20.654326274
 10
240.0531387828
 20
-18.914424236
 10
240.204723152
 20
-17.1242050871
 10
240.4565783604
 20
-15.2920156555
 10
240.8075301427
 20
-13.426398454
 10
241.2559421997
 20
-11.5360518512
 10
241.7997238274
 20
-9.6297895156
 10
242.4363396648
 20
-7.7164993222
 10
243.162821515
 20
-5.8051019131
 10
243.9757821843
 20
-3.9045091053
 10
244.8714312747
 20
-2.0235823399
 10
245.8455928568
 20
-0.1710913656
 10
246.8937249395
 20
1.6443266493
 10
248.0109406472
 20
3.4142073882
 10
249.1920310047
 20
5.13029885
 10
250.4314892233
 20
6.7845998241
 10
251.7235363769
 20
8.3693971957
 10
253.062148345
 20
9.877301908
 10
254.4410839008
 20
11.3012834129
 10
255.8539138101
 20
12.6347024516
 10
257.2940508078
 20
13.8713420088
 10
258.7547803103
 20
15.0054363001
 10
260.2292917225
 20
16.0316976543
 10
261.7107101914
 20
16.9453411674
 10
263.1921286603
 20
17.7421070115
 10
264.6666400725
 20
18.4182802963
 10
266.1273695751
 20
18.9707083901
 10
267.5675065727
 20
19.3968156178
 10
268.9803364821
 20
19.6946152711
 10
270.3592720379
 20
19.8627188703
 10
271.697884006
 20
19.9003426389
 10
272.9899311595
 20
19.8073111577
 10
274.2293893782
 20
19.5840581821
 10
275.4104797356
 20
19.2316246208
 10
276.5276954434
 20
18.7516536816
 10
277.5758275261
 20
18.1463832106
 10
278.5499891082
 20
17.4186352581
 10
279.4456381986
 20
16.5718029212
 10
280.2585988678
 20
15.609834523
 10
280.985080718
 20
14.5372152042
 10
281.6216965554
 20
13.3589460113
 10
282.1654781831
 20
12.0805205791
 10
282.6138902401
 20
10.7078995173
 10
282.9648420224
 20
9.2474826187
 10
283.2166972308
 20
7.7060790211
 10
283.3682816001
 20
6.0908754597
 10
283.4188883739
 20
4.409402759
 10
283.3682816001
 20
2.669500721
 10
283.2166972308
 20
0.8792815721
 10
282.9648420224
 20
-0.9529078595
 10
282.6138902401
 20
-2.818525061
 10
282.1654781831
 20
-4.7088716638
 10
281.6216965554
 20
-6.6151339994
 10
280.985080718
 20
-8.5284241928
 10
280.2585988678
 20
-10.4398216019
 10
279.4456381986
 20
-12.3404144097
 10
278.5499891082
 20
-14.2213411751
 10
277.5758275261
 20
-16.0738321494
 10
276.5276954434
 20
-17.8892501643
 10
275.4104797356
 20
-19.6591309032
 10
274.2293893782
 20
-21.375222365
 10
272.9899311595
 20
-23.0295233391
 10
271.697884006
 20
-24.6143207107
 10
270.3592720379
 20
-26.122225423
 10
268.9803364821
 20
-27.5462069279
 10
267.5675065727
 20
-28.8796259666
 10
266.1273695751
 20
-30.1162655238
 10
264.6666400725
 20
-31.2503598151
 10
263.1921286603
 20
-32.2766211693
 10
261.7107101914
 20
-33.1902646824
 10
260.2292917225
 20
-33.9870305265
 10
258.7547803103
 20
-34.6632038113
 10
257.2940508078
 20
-35.2156319051
 10
255.8539138101
 20
-35.6417391328
 10
254.4410839008
 20
-35.9395387861
 10
253.062148345
 20
-36.1076423853
 10
251.7235363769
 20
-36.145266154
 10
250.4314892233
 20
-36.0522346727
 10
249.1920310047
 20
-35.8289816971
 10
248.0109406472
 20
-35.4765481358
 10
246.8937249395
 20
-34.9965771966
 10
245.8455928567
 20
-34.3913067256
 10
244.8714312747
 20
-33.6635587732
 10
243.9757821843
 20
-32.8167264362
 10
243.162821515
 20
-31.854758038
 10
242.4363396648
 20
-30.7821387192
 10
241.7997238274
 20
-29.6038695263
 10
241.2559421997
 20
-28.3254440941
 10
240.8075301427
 20
-26.9528230323
 10
240.4565783604
 20
-25.4924061337
 10
240.204723152
 20
-23.9510025361
 10
240.0531387828
 20
-22.3357989747
 10
240.002532009
 20
-20.654326274
  0
LWPOLYLINE
  5
121
330
1F
100
AcDbEntity
  8
0
  6
Continuous
 62
     7
370
    25
100
AcDbPolyline
 90
      103
 70
   128
 43
0.0
 10
235.1942058969
 20
-23.4301138542
 10
235.2444989886
 20
-21.51606806
 10
235.3951874848
 20
-19.5512157295
 10
235.6456997723
 20
-17.5430102205
 10
235.9950855723
 20
-15.4990693445
 10
236.4420195447
 20
-13.4271464691
 10
236.9848063159
 20
-11.3351011077
 10
237.6213869098
 20
-9.2308691048
 10
238.3493465581
 20
-7.1224325332
 10
239.1659238606
 20
-5.0177894149
 10
240.0680212598
 20
-2.9249233823
 10
241.0522167913
 20
-0.851773393
 10
242.1147770643
 20
1.1937963849
 10
243.2516714238
 20
3.2040264046
 10
244.45858724
 20
5.1712911751
 10
245.7309462679
 20
7.0881281872
 10
247.0639220138
 20
8.9472662217
 10
248.4524580442
 20
10.7416529312
 10
249.8912871663
 20
12.4644815921
 10
251.3749514083
 20
14.1092169254
 10
252.8978227237
 20
15.6696198865
 10
254.4541243399
 20
17.1397713326
 10
256.0379526718
 20
18.5140944755
 10
257.6432997161
 20
19.787376037
 10
259.2640758415
 20
20.9547860238
 10
260.894132889
 20
22.0118960502
 10
262.5272874939
 20
22.9546961355
 10
264.1573445414
 20
23.7796099162
 10
265.7781206668
 20
24.4835082118
 10
267.383467711
 20
25.0637208949
 10
268.9672960429
 20
25.5180470201
 10
270.5235976591
 20
25.8447631727
 10
272.0464689745
 20
26.0426300065
 10
273.5301332166
 20
26.1108969449
 10
274.9689623387
 20
26.0493050278
 10
276.3574983691
 20
25.8580878947
 10
277.690474115
 20
25.5379708974
 10
278.9628331429
 20
25.0901683496
 10
280.1697489591
 20
24.5163789195
 10
281.3066433186
 20
23.8187791872
 10
282.3692035916
 20
23.0000153872
 10
283.3533991231
 20
22.0631933711
 10
284.2554965223
 20
21.0118668258
 10
285.0720738247
 20
19.8500237929
 10
285.800033473
 20
18.582071541
 10
286.4366140669
 20
17.2128198474
 10
286.9794008382
 20
15.7474627526
 10
287.4263348106
 20
14.191558858
 10
287.7757206106
 20
12.5510102402
 10
288.0262328981
 20
10.8320400618
 10
288.1769213942
 20
9.0411689657
 10
288.2272144859
 20
7.1851903392
 10
288.1769213942
 20
5.271144545
 10
288.0262328981
 20
3.3062922145
 10
287.7757206106
 20
1.2980867055
 10
287.4263348106
 20
-0.7458541705
 10
286.9794008382
 20
-2.8177770459
 10
286.4366140669
 20
-4.9098224073
 10
285.800033473
 20
-7.0140544102
 10
285.0720738247
 20
-9.1224909818
 10
284.2554965223
 20
-11.2271341001
 10
283.3533991231
 20
-13.3200001327
 10
282.3692035916
 20
-15.393150122
 10
281.3066433186
 20
-17.4387198999
 10
280.1697489591
 20
-19.4489499196
 10
278.9628331429
 20
-21.4162146901
 10
277.690474115
 20
-23.3330517022
 10
276.3574983691
 20
-25.1921897367
 10
274.9689623387
 20
-26.9865764462
 10
273.5301332166
 20
-28.7094051071
 10
272.0464689745
 20
-30.3541404404
 10
270.5235976591
 20
-31.9145434015
 10
268.9672960429
 20
-33.3846948476
 10
267.383467711
 20
-34.7590179905
 10
265.7781206668
 20
-36.032299552
 10
264.1573445414
 20
-37.1997095388
 10
262.5272874939
 20
-38.2568195652
 10
260.894132889
 20
-39.1996196505
 10
259.2640758415
 20
-40.0245334312
 10
257.6432997161
 20
-40.7284317268
 10
256.0379526718
 20
-41.3086444099
 10
254.4541243399
 20
-41.7629705351
 10
252.8978227237
 20
-42.0896866877
 10
251.3749514083
 20
-42.2875535215
 10
249.8912871663
 20
-42.3558204599
 10
248.4524580442
 20
-42.2942285428
 10
247.0639220138
 20
-42.1030114097
 10
245.7309462679
 20
-41.7828944124
 10
244.45858724
 20
-41.3350918646
 10
243.2516714238
 20
-40.7613024345
 10
242.1147770643
 20
-40.0637027022
 10
241.0522167913
 20
-39.2449389022
 10
240.0680212598
 20
-38.3081168861
 10
239.1659238606
 20
-37.2567903408
 10
238.3493465581
 20
-36.0949473079
 10
237.6213869098
 20
-34.826995056
 10
236.9848063159
 20
-33.4577433624
 10
236.4420195447
 20
-31.9923862676
 10
235.9950855723
 20
-30.436482373
 10
235.6456997723
 20
-28.7959337552
 10
235.3951874848
 20
-27.0769635768
 10
235.2444989886
 20
-25.2860924807
 10
235.1942058969
 20
-23.4301138542
  0
LWPOLYLINE
  5
122
330
1F
100
AcDbEntity
  8
0
  6
Continuous
 62
     7
370
    25
100
AcDbPolyline
 90
       53
 70
   128
 43
0.0
 10
330.6637678926
 20
-4.6281173879
 10
331.5112247828
 20
-5.1637087825
 10
332.5737850558
 20
-5.9824725825
 10
333.5579805873
 20
-6.9192945986
 10
334.4600779865
 20
-7.9706211439
 10
335.276655289
 20
-9.1324641768
 10
336.0046149373
 20
-10.4004164287
 10
336.6411955312
 20
-11.7696681223
 10
337.1839823024
 20
-13.2350252171
 10
337.6309162748
 20
-14.7909291117
 10
337.9803020748
 20
-16.4314777295
 10
338.2308143623
 20
-18.1504479079
 10
338.3815028585
 20
-19.9413190041
 10
338.4317959502
 20
-21.7972976305
 10
338.3815028585
 20
-23.7113434247
 10
338.2308143623
 20
-25.6761957552
 10
337.9803020748
 20
-27.6844012642
 10
337.6309162748
 20
-29.7283421402
 10
337.1839823024
 20
-31.8002650156
 10
336.6411955312
 20
-33.892310377
 10
336.0046149373
 20
-35.9965423799
 10
335.276655289
 20
-38.1049789515
 10
334.4600779865
 20
-40.2096220698
 10
333.5579805873
 20
-42.3024881024
 10
332.5737850558
 20
-44.3756380917
 10
331.5112247828
 20
-46.4212078696
 10
330.3743304233
 20
-48.4314378893
 10
329.1674146071
 20
-50.3987026598
 10
327.8950555792
 20
-52.3155396719
 10
326.5620798333
 20
-54.1746777064
 10
325.1735438029
 20
-55.9690644159
 10
323.7347146808
 20
-57.6918930768
 10
322.2510504388
 20
-59.3366284101
 10
320.7281791234
 20
-60.8970313712
 10
319.1718775072
 20
-62.3671828173
 10
317.5880491752
 20
-63.7415059602
 10
315.982702131
 20
-65.0147875217
 10
314.3619260056
 20
-66.1821975086
 10
312.7318689581
 20
-67.2393075349
 10
311.0987143532
 20
-68.1821076202
 10
309.4686573057
 20
-69.0070214009
 10
307.8478811803
 20
-69.7109196965
 10
306.2425341361
 20
-70.2911323796
 10
304.6587058042
 20
-70.7454585048
 10
303.102404188
 20
-71.0721746574
 10
301.5795328726
 20
-71.2700414913
 10
300.0958686305
 20
-71.3383084296
 10
298.6570395084
 20
-71.2767165125
 10
297.268503478
 20
-71.0854993794
 10
295.9355277321
 20
-70.7653823821
 10
294.6631687042
 20
-70.3175798343
 10
293.456252888
 20
-69.7437904043
 10
293.1668154187
 20
-69.5817820665
  0
ARC
  5
123
330
1F
100
AcDbEntity
  8
0
  6
Continuous
 62
     7
370
    25
100
AcDbCircle
 10
329.0463171445
 20
-8.2463191653
 30
0.0
 40
17.43634642178092
100
AcDbArc
 50
40.370104279
 51
79.6708890757
  0
ARC
  5
124
330
1F
100
AcDbEntity
  8
0
  6
Continuous
 62
     7
370
    25
100
AcDbCircle
 10
295.4726755281
 20
-66.4036744396
 30
0.0
 40
17.40151466958625
100
AcDbArc
 50
220.2894786989
 51
259.6436246427
  0
LWPOLYLINE
  5
125
330
1F
100
AcDbEntity
  8
0
  6
Continuous
 62
     7
370
    25
100
AcDbPolyline
 90
       62
 70
   128
 43
0.0
 10
362.8690634606
 20
-7.6318037586
 10
363.3710032851
 20
-7.9332052128
 10
364.6536332322
 20
-8.8174850013
 10
365.8602219657
 20
-9.8215655927
 10
366.9874065062
 20
-10.9426484341
 10
368.0320451883
 20
-12.1776088667
 10
368.9912264167
 20
-13.5230048342
 10
369.8622767811
 20
-14.9750864768
 10
370.6427685081
 20
-16.5298065824
 10
371.3305262271
 20
-18.1828318673
 10
371.9236330341
 20
-19.9295550536
 10
372.4204358341
 20
-21.7651077104
 10
372.8195499484
 20
-23.6843738232
 10
373.1198629746
 20
-25.6820040532
 10
373.3205378862
 20
-27.7524306467
 10
373.4210153664
 20
-29.8898829533
 10
373.4210153664
 20
-32.0884035101
 10
373.3205378862
 20
-34.341864646
 10
373.1198629746
 20
-36.6439855607
 10
372.8195499484
 20
-38.9883498303
 10
372.4204358341
 20
-41.368423291
 10
371.9236330341
 20
-43.7775722512
 10
371.3305262271
 20
-46.2090819808
 10
370.6427685081
 20
-48.6561754259
 10
369.8622767811
 20
-51.1120320983
 10
368.9912264167
 20
-53.5698070848
 10
368.0320451883
 20
-56.0226501259
 10
366.9874065062
 20
-58.463724708
 10
365.8602219657
 20
-60.8862271184
 10
364.6536332322
 20
-63.2834054085
 10
363.3710032851
 20
-65.6485782123
 10
362.015907044
 20
-67.9751533691
 10
360.5921214051
 20
-70.2566462966
 10
359.1036147144
 20
-72.4866980649
 10
357.5545357071
 20
-74.6590931196
 10
355.9492019442
 20
-76.7677766061
 10
354.2920877787
 20
-78.8068712453
 10
352.5878118851
 20
-80.7706937149
 10
350.841124386
 20
-82.6537704892
 10
349.0568936127
 20
-84.4508530956
 10
347.2400925364
 20
-86.1569327425
 10
345.3957849076
 20
-87.76725428
 10
343.5291111423
 20
-89.2773294532
 10
341.6452739953
 20
-90.6829494116
 10
339.7495240584
 20
-91.9801964404
 10
337.8471451268
 20
-93.1654548793
 10
335.9434394718
 20
-94.2354212007
 10
334.0437130624
 20
-95.1871132163
 10
332.153260777
 20
-96.0178783899
 10
330.2773516451
 20
-96.7254012299
 10
328.4212141618
 20
-97.3077097433
 10
326.5900217154
 20
-97.7631809318
 10
324.7888781674
 20
-98.0905453155
 10
323.0228036282
 20
-98.2888904712
 10
321.2967204642
 20
-98.3576635752
 10
319.6154395786
 20
-98.2966729448
 10
317.983647003
 20
-98.1060885716
 10
316.4058908359
 20
-97.7864416486
 10
314.8865685667
 20
-97.3386230889
 10
313.4299148191
 20
-96.7638810434
 10
312.0399895484
 20
-96.063817421
 10
311.8732080962
 20
-95.9687877214
  0
LINE
  5
126
330
1F
100
AcDbEntity
  8
0
  6
Continuous
 62
     7
370
    25
100
AcDbLine
 10
341.3686212039
 20
-90.879539444
 30
0.0
 11
348.6848442774
 21
-95.1031051232
 31
0.0
  0
LINE
  5
127
330
1F
100
AcDbEntity
  8
0
  6
Continuous
 62
     7
370
    25
100
AcDbLine
 10
368.0242048701
 20
-56.0417917476
 30
0.0
 11
376.2620087436
 21
-60.7973746984
 31
0.0
  0
LINE
  5
128
330
1F
100
AcDbEntity
  8
0
  6
Continuous
 62
     7
370
    25
100
AcDbLine
 10
348.6848442774
 20
-95.1031051232
 30
0.0
 11
376.2620087436
 21
-60.7973746984
 31
0.0
  0
LINE
  5
129
330
1F
100
AcDbEntity
  8
0
  6
Continuous
 62
     7
370
    25
100
AcDbLine
 10
372.4322949859
 20
-21.8149835166
 30
0.0
 11
376.2620087436
 21
-24.0258302097
 31
0.0
  0
LINE
  5
12A
330
1F
100
AcDbEntity
  8
0
  6
Continuous
 62
     7
370
    25
100
AcDbLine
 10
376.2620087436
 20
-60.7973746984
 30
0.0
 11
376.2620087436
 21
-24.0258302097
 31
0.0
  0
LWPOLYLINE
  5
12B
330
1F
100
AcDbEntity
  8
0
  6
Continuous
 62
     7
370
    25
100
AcDbPolyline
 90
       53
 70
   128
 43
0.0
 10
378.7920253563
 20
-32.3080487923
 10
379.641516143
 20
-32.8449256062
 10
380.7066265607
 20
-33.6656544393
 10
381.6931841614
 20
-34.6047248282
 10
382.5974465944
 20
-35.6585745572
 10
383.4159836824
 20
-36.8232060134
 10
384.1456904338
 20
-38.0942013507
 10
384.7837988212
 20
-39.4667392485
 10
385.3278882806
 20
-40.9356132003
 10
385.7758948946
 20
-42.4952512642
 10
386.1261192205
 20
-44.1397371987
 10
386.3772327375
 20
-45.8628329055
 10
386.528282886
 20
-47.6580020923
 10
386.5786966812
 20
-49.5184350675
 10
386.528282886
 20
-51.4370745715
 10
386.3772327375
 20
-53.4066425476
 10
386.1261192205
 20
-55.4196677498
 10
385.7758948946
 20
-57.468514084
 10
385.3278882806
 20
-59.5454095742
 10
384.7837988212
 20
-61.6424758445
 10
384.1456904338
 20
-63.7517580042
 10
383.4159836824
 20
-65.8652548236
 10
382.5974465944
 20
-67.9749490854
 10
381.6931841614
 20
-70.0728379965
 10
380.7066265607
 20
-72.1509635457
 10
379.641516143
 20
-74.2014426911
 10
378.5018932371
 20
-76.2164972628
 10
377.2920808229
 20
-78.1884834688
 10
376.0166681333
 20
-80.1099208898
 10
374.6804932456
 20
-81.9735208555
 10
373.2886247288
 20
-83.7722140931
 10
371.8463424168
 20
-85.4991775428
 10
370.3591173805
 20
-87.1478602409
 10
368.832591174
 20
-88.7120081692
 10
367.2725544339
 20
-90.1856879787
 10
365.684924914
 20
-91.5633094972
 10
364.0757250368
 20
-92.8396469344
 10
362.4510590488
 20
-94.0098587052
 10
360.8170898643
 20
-95.0695057956
 10
359.1800156884
 20
-96.0145686011
 10
357.546046504
 20
-96.8414621749
 10
355.9213805159
 20
-97.5470498264
 10
354.3121806387
 20
-98.12865502
 10
352.7245511188
 20
-98.5840715278
 10
351.1645143787
 20
-98.9115717992
 10
349.6379881722
 20
-99.1099135135
 10
348.1507631359
 20
-99.1783442924
 10
346.708480824
 20
-99.1166045548
 10
345.3166123071
 20
-98.9249285005
 10
343.9804374194
 20
-98.6040432225
 10
342.7050247298
 20
-98.1551659485
 10
341.4952123156
 20
-97.5799994238
 10
341.2050801965
 20
-97.4176022661
  0
LINE
  5
12C
330
1F
100
AcDbEntity
  8
0
  6
Continuous
 62
     7
370
    25
100
AcDbLine
 10
336.3759836111
 20
-94.0025074974
 30
0.0
 11
348.6848442774
 21
-95.1031051232
 31
0.0
  0
LWPOLYLINE
  5
12D
330
1F
100
AcDbEntity
  8
0
  6
Continuous
 62
     7
370
    25
100
AcDbPolyline
 90
       54
 70
   128
 43
0.0
 10
379.4858292616
 20
-32.7392966019
 10
379.9161067994
 20
-32.9620597463
 10
381.0557297054
 20
-33.6613337181
 10
382.1208401231
 20
-34.4820625512
 10
383.1073977238
 20
-35.42113294
 10
384.0116601568
 20
-36.4749826691
 10
384.8301972447
 20
-37.6396141252
 10
385.5599039962
 20
-38.9106094625
 10
386.1980123835
 20
-40.2831473603
 10
386.742101843
 20
-41.7520213121
 10
387.190108457
 20
-43.311659376
 10
387.5403327829
 20
-44.9561453105
 10
387.7914462999
 20
-46.6792410173
 10
387.9424964484
 20
-48.4744102041
 10
387.9929102435
 20
-50.3348431793
 10
387.9424964484
 20
-52.2534826833
 10
387.7914462999
 20
-54.2230506595
 10
387.5403327829
 20
-56.2360758616
 10
387.190108457
 20
-58.2849221958
 10
386.742101843
 20
-60.3618176861
 10
386.1980123835
 20
-62.4588839564
 10
385.5599039962
 20
-64.5681661161
 10
384.8301972447
 20
-66.6816629355
 10
384.0116601568
 20
-68.7913571972
 10
383.1073977238
 20
-70.8892461083
 10
382.1208401231
 20
-72.9673716575
 10
381.0557297054
 20
-75.0178508029
 10
379.9161067994
 20
-77.0329053747
 10
378.7062943853
 20
-79.0048915806
 10
377.4308816957
 20
-80.9263290016
 10
376.094706808
 20
-82.7899289674
 10
374.7028382911
 20
-84.5886222049
 10
373.2605559792
 20
-86.3155856547
 10
371.7733309429
 20
-87.9642683528
 10
370.2468047363
 20
-89.528416281
 10
368.6867679963
 20
-91.0020960905
 10
367.0991384764
 20
-92.379717609
 10
365.4899385992
 20
-93.6560550462
 10
363.8652726111
 20
-94.826266817
 10
362.2313034267
 20
-95.8859139074
 10
360.5942292507
 20
-96.8309767129
 10
358.9602600663
 20
-97.6578702868
 10
357.3355940783
 20
-98.3634579382
 10
355.7263942011
 20
-98.9450631318
 10
354.1387646812
 20
-99.4004796397
 10
352.5787279411
 20
-99.7279799111
 10
351.0522017346
 20
-99.9263216253
 10
349.5649766983
 20
-99.9947524043
 10
348.1226943863
 20
-99.9330126666
 10
346.7308258695
 20
-99.7413366123
 10
345.3946509817
 20
-99.4204513343
 10
344.1192382922
 20
-98.9715740603
 10
342.909425878
 20
-98.3964075357
 10
341.9254898535
 20
-97.8027625683
  0
LWPOLYLINE
  5
12E
330
1F
100
AcDbEntity
  8
0
  6
Continuous
 62
     7
370
    25
100
AcDbPolyline
 90
       54
 70
   128
 43
0.0
 10
380.900042824
 20
-33.5557047137
 10
381.3303203618
 20
-33.7784678582
 10
382.4699432678
 20
-34.4777418299
 10
383.5350536854
 20
-35.298470663
 10
384.5216112862
 20
-36.2375410519
 10
385.4258737191
 20
-37.2913907809
 10
386.2444108071
 20
-38.4560222371
 10
386.9741175586
 20
-39.7270175744
 10
387.6122259459
 20
-41.0995554721
 10
388.1563154054
 20
-42.5684294239
 10
388.6043220193
 20
-44.1280674878
 10
388.9545463452
 20
-45.7725534224
 10
389.2056598623
 20
-47.4956491291
 10
389.3567100108
 20
-49.2908183159
 10
389.4071238059
 20
-51.1512512911
 10
389.3567100108
 20
-53.0698907952
 10
389.2056598623
 20
-55.0394587713
 10
388.9545463452
 20
-57.0524839735
 10
388.6043220193
 20
-59.1013303076
 10
388.1563154054
 20
-61.1782257979
 10
387.6122259459
 20
-63.2752920682
 10
386.9741175586
 20
-65.3845742279
 10
386.2444108071
 20
-67.4980710473
 10
385.4258737191
 20
-69.607765309
 10
384.5216112862
 20
-71.7056542201
 10
383.5350536854
 20
-73.7837797694
 10
382.4699432678
 20
-75.8342589147
 10
381.3303203618
 20
-77.8493134865
 10
380.1205079476
 20
-79.8212996924
 10
378.8450952581
 20
-81.7427371134
 10
377.5089203704
 20
-83.6063370792
 10
376.1170518535
 20
-85.4050303167
 10
374.6747695415
 20
-87.1319937665
 10
373.1875445053
 20
-88.7806764646
 10
371.6610182987
 20
-90.3448243928
 10
370.1009815586
 20
-91.8185042023
 10
368.5133520387
 20
-93.1961257208
 10
366.9041521616
 20
-94.472463158
 10
365.2794861735
 20
-95.6426749288
 10
363.6455169891
 20
-96.7023220192
 10
362.0084428131
 20
-97.6473848248
 10
360.3744736287
 20
-98.4742783986
 10
358.7498076406
 20
-99.1798660501
 10
357.1406077635
 20
-99.7614712436
 10
355.5529782436
 20
-100.2168877515
 10
353.9929415035
 20
-100.5443880229
 10
352.4664152969
 20
-100.7427297371
 10
350.9791902607
 20
-100.8111605161
 10
349.5369079487
 20
-100.7494207784
 10
348.1450394318
 20
-100.5577447241
 10
346.8088645441
 20
-100.2368594461
 10
345.5334518546
 20
-99.7879821722
 10
344.3236394404
 20
-99.2128156475
 10
343.3397034159
 20
-98.6191706801
  0
LWPOLYLINE
  5
12F
330
1F
100
AcDbEntity
  8
0
  6
Continuous
 62
     7
370
    25
100
AcDbPolyline
 90
       54
 70
   128
 43
0.0
 10
382.3142563863
 20
-34.3721128255
 10
382.7445339242
 20
-34.59487597
 10
383.8841568301
 20
-35.2941499417
 10
384.9492672478
 20
-36.1148787748
 10
385.9358248486
 20
-37.0539491637
 10
386.8400872815
 20
-38.1077988927
 10
387.6586243695
 20
-39.2724303489
 10
388.388331121
 20
-40.5434256862
 10
389.0264395083
 20
-41.9159635839
 10
389.5705289678
 20
-43.3848375358
 10
390.0185355817
 20
-44.9444755996
 10
390.3687599076
 20
-46.5889615342
 10
390.6198734246
 20
-48.312057241
 10
390.7709235732
 20
-50.1072264278
 10
390.8213373683
 20
-51.9676594029
 10
390.7709235732
 20
-53.886298907
 10
390.6198734246
 20
-55.8558668831
 10
390.3687599076
 20
-57.8688920853
 10
390.0185355817
 20
-59.9177384195
 10
389.5705289678
 20
-61.9946339097
 10
389.0264395083
 20
-64.09170018
 10
388.388331121
 20
-66.2009823397
 10
387.6586243695
 20
-68.3144791591
 10
386.8400872815
 20
-70.4241734208
 10
385.9358248486
 20
-72.5220623319
 10
384.9492672478
 20
-74.6001878812
 10
383.8841568301
 20
-76.6506670265
 10
382.7445339242
 20
-78.6657215983
 10
381.53472151
 20
-80.6377078043
 10
380.2593088205
 20
-82.5591452252
 10
378.9231339327
 20
-84.422745191
 10
377.5312654159
 20
-86.2214384286
 10
376.0889831039
 20
-87.9484018783
 10
374.6017580677
 20
-89.5970845764
 10
373.0752318611
 20
-91.1612325046
 10
371.515195121
 20
-92.6349123141
 10
369.9275656011
 20
-94.0125338326
 10
368.3183657239
 20
-95.2888712698
 10
366.6936997359
 20
-96.4590830407
 10
365.0597305515
 20
-97.518730131
 10
363.4226563755
 20
-98.4637929366
 10
361.7886871911
 20
-99.2906865104
 10
360.164021203
 20
-99.9962741619
 10
358.5548213258
 20
-100.5778793554
 10
356.9671918059
 20
-101.0332958633
 10
355.4071550659
 20
-101.3607961347
 10
353.8806288593
 20
-101.5591378489
 10
352.393403823
 20
-101.6275686279
 10
350.9511215111
 20
-101.5658288903
 10
349.5592529942
 20
-101.374152836
 10
348.2230781065
 20
-101.053267558
 10
346.9476654169
 20
-100.604390284
 10
345.7378530028
 20
-100.0292237593
 10
344.7539169782
 20
-99.4355787919
  0
LWPOLYLINE
  5
130
330
1F
100
AcDbEntity
  8
0
  6
Continuous
 62
     1
370
    25
100
AcDbPolyline
 90
       90
 70
   128
 43
0.0
 10
313.7508591232
 20
5.1354970203
 10
314.2703624035
 20
5.4001371857
 10
316.1475265567
 20
6.2829358634
 10
318.0128947121
 20
7.0448047221
 10
319.8612677542
 20
7.6836202966
 10
321.6874939357
 20
8.1976020933
 10
323.4864832367
 20
8.5853175527
 10
325.2532215514
 20
8.8456860424
 10
326.9827846633
 20
8.9779818686
 10
328.6703519697
 20
8.9818362991
 10
330.3112199179
 20
8.857238591
 10
331.9008151145
 20
8.6045360204
 10
333.4347070727
 20
8.2244329148
 10
334.9086205605
 20
7.7179886895
 10
336.3184475167
 20
7.0866148956
 10
337.6602585006
 20
6.3320712851
 10
338.9303136443
 20
5.4564609062
 10
340.1250730764
 20
4.4622242422
 10
341.2412067881
 20
3.352132409
 10
342.2756039145
 20
2.1292794317
 10
343.2253814053
 20
0.7970736207
 10
344.0878920603
 20
-0.6407719273
 10
344.8607319076
 20
-2.180249679
 10
345.5417469039
 20
-3.8170688336
 10
346.1290389383
 20
-5.5466672828
 10
346.6209711226
 20
-7.3642243253
 10
347.0161723534
 20
-9.2646741037
 10
347.3135411342
 20
-11.2427197236
 10
347.5122486448
 20
-13.2928480171
 10
347.6117410517
 20
-15.409344909
 10
347.6117410517
 20
-17.5863113427
 10
347.5122486448
 20
-19.8176797224
 10
347.3135411342
 20
-22.0972308242
 10
347.0161723534
 20
-24.4186111303
 10
346.6209711226
 20
-26.7753505375
 10
346.1290389383
 20
-29.1608803903
 10
345.5417469039
 20
-31.5685517892
 10
344.8607319076
 20
-33.9916541221
 10
344.0878920603
 20
-36.4234337682
 10
343.2253814053
 20
-38.8571129216
 10
342.2756039145
 20
-41.2859084819
 10
341.2412067881
 20
-43.7030509602
 10
340.1250730764
 20
-46.101803347
 10
338.9303136443
 20
-48.4754798891
 10
337.6602585006
 20
-50.8174647243
 10
336.3184475167
 20
-53.1212303207
 10
334.9086205605
 20
-55.3803556705
 10
333.4347070727
 20
-57.5885441861
 10
331.9008151145
 20
-59.7396412501
 10
330.3112199179
 20
-61.8276513691
 10
328.6703519697
 20
-63.8467548844
 10
326.9827846633
 20
-65.7913241925
 10
325.2532215514
 20
-67.6559394298
 10
323.4864832367
 20
-69.4354035793
 10
321.6874939357
 20
-71.1247569552
 10
319.8612677542
 20
-72.7192910266
 10
318.0128947121
 20
-74.2145615412
 10
316.1475265567
 20
-75.6064009118
 10
314.2703624035
 20
-76.8909298325
 10
312.3866342458
 20
-78.0645680907
 10
310.5015923717
 20
-79.1240445461
 10
308.6204907311
 20
-80.0664062478
 10
306.7485722916
 20
-80.8890266648
 10
304.8910544256
 20
-81.5896130064
 10
303.0531143687
 20
-82.1662126128
 10
301.2398747893
 20
-82.6172183975
 10
299.4563895115
 20
-82.9413733265
 10
297.7076294285
 20
-83.1377739218
 10
295.9984686484
 20
-83.2058727797
 10
294.3336709089
 20
-83.1454800966
 10
292.7178762997
 20
-82.9567641977
 10
291.1555883303
 20
-82.640251068
 10
289.6511613775
 20
-82.1968228864
 10
288.208788549
 20
-81.6277155668
 10
286.8324899965
 20
-80.9345153133
 10
285.5261017111
 20
-80.1191541994
 10
284.2932648311
 20
-79.1839047827
 10
283.1374154941
 20
-78.1313737711
 10
282.0617752595
 20
-76.9644947573
 10
281.0693421295
 20
-75.6865200425
 10
280.1628821933
 20
-74.3010115713
 10
279.3449219172
 20
-72.8118310044
 10
278.6177411033
 20
-71.2231289551
 10
277.983366535
 20
-69.5393334209
 10
277.4435663279
 20
-67.7651374421
 10
276.999845002
 20
-65.905486021
 10
276.6534392883
 20
-63.9655623396
 10
276.4053146816
 20
-61.9507733133
 10
276.2561627497
 20
-59.8667345204
 10
276.2539066493
 20
-59.8181676583
  0
LWPOLYLINE
  5
131
330
1F
100
AcDbEntity
  8
0
  6
Continuous
 62
     1
370
    25
100
AcDbPolyline
 90
       54
 70
   128
 43
0.0
 10
342.3306576203
 20
3.0475940034
 10
342.9297544562
 20
2.3136351182
 10
343.8889356845
 20
0.9682391507
 10
344.759986049
 20
-0.4838424919
 10
345.5404777759
 20
-2.0385625975
 10
346.228235495
 20
-3.6915878824
 10
346.821342302
 20
-5.4383110687
 10
347.318145102
 20
-7.2738637255
 10
347.7172592163
 20
-9.1931298383
 10
348.0175722424
 20
-11.1907600684
 10
348.2182471541
 20
-13.2611866618
 10
348.3187246343
 20
-15.3986389684
 10
348.3187246343
 20
-17.5971595252
 10
348.2182471541
 20
-19.8506206612
 10
348.0175722424
 20
-22.1527415759
 10
347.7172592163
 20
-24.4971058454
 10
347.318145102
 20
-26.8771793061
 10
346.821342302
 20
-29.2863282664
 10
346.228235495
 20
-31.7178379959
 10
345.5404777759
 20
-34.1649314411
 10
344.759986049
 20
-36.6207881134
 10
343.8889356845
 20
-39.0785631
 10
342.9297544562
 20
-41.5314061411
 10
341.8851157741
 20
-43.9724807232
 10
340.7579312336
 20
-46.3949831336
 10
339.5513425001
 20
-48.7921614236
 10
338.268712553
 20
-51.1573342275
 10
336.9136163118
 20
-53.4839093843
 10
335.489830673
 20
-55.7654023118
 10
334.0013239823
 20
-57.99545408
 10
332.452244975
 20
-60.1678491347
 10
330.846911212
 20
-62.2765326212
 10
329.1897970466
 20
-64.3156272605
 10
327.485521153
 20
-66.27944973
 10
325.7388336539
 20
-68.1625265043
 10
323.9546028806
 20
-69.9596091107
 10
322.1378018043
 20
-71.6656887577
 10
320.2934941754
 20
-73.2760102952
 10
318.4268204102
 20
-74.7860854683
 10
316.5429832631
 20
-76.1917054268
 10
314.6472333263
 20
-77.4889524555
 10
312.7448543947
 20
-78.6742108945
 10
310.8411487397
 20
-79.7441772158
 10
308.9414223303
 20
-80.6958692314
 10
307.0509700449
 20
-81.526634405
 10
305.1750609129
 20
-82.2341572451
 10
303.3189234297
 20
-82.8164657584
 10
301.4877309832
 20
-83.2719369469
 10
299.6865874353
 20
-83.5993013306
 10
297.9205128961
 20
-83.7976464863
 10
296.194429732
 20
-83.8664195904
 10
294.5131488465
 20
-83.8054289599
 10
292.8813562709
 20
-83.6148445868
 10
292.3444016177
 20
-83.5216946271
  0
LINE
  5
132
330
1F
100
AcDbEntity
  8
0
  6
Continuous
 62
     7
370
    25
100
AcDbLine
 10
88.8323425481
 20
-25.4663755009
 30
0.0
 11
88.8323425481
 21
-60.9663755009
 31
0.0
  0
LINE
  5
133
330
1F
100
AcDbEntity
  8
0
  6
Continuous
 62
     7
370
    25
100
AcDbLine
 10
190.8323425481
 20
-60.9663755009
 30
0.0
 11
190.8323425481
 21
-25.4663755009
 31
0.0
  0
ARC
  5
134
330
1F
100
AcDbEntity
  8
0
  6
Continuous
 62
     7
370
    25
100
AcDbCircle
 10
89.3323425481
 20
-60.9663755009
 30
0.0
 40
0.5000000000000142
100
AcDbArc
 50
180.0
 51
270.0
  0
ARC
  5
135
330
1F
100
AcDbEntity
  8
0
  6
Continuous
 62
     7
370
    25
100
AcDbCircle
 10
190.3323425481
 20
-60.9663755009
 30
0.0
 40
0.5
100
AcDbArc
 50
270.0
 51
0.0
  0
LINE
  5
136
330
1F
100
AcDbEntity
  8
0
  6
Continuous
 62
     7
370
    25
100
AcDbLine
 10
177.4223425481
 20
12.5336244991
 30
0.0
 11
175.6902917405
 21
13.5336244991
 31
0.0
  0
LINE
  5
137
330
1F
100
AcDbEntity
  8
0
  6
Continuous
 62
     7
370
    25
100
AcDbLine
 10
103.9743933556
 20
13.5336244991
 30
0.0
 11
102.2423425481
 21
12.5336244991
 31
0.0
  0
LINE
  5
138
330
1F
100
AcDbEntity
  8
0
  6
Continuous
 62
     7
370
    25
100
AcDbLine
 10
177.4223425481
 20
10.5336244991
 30
0.0
 11
175.6902917405
 21
11.5336244991
 31
0.0
  0
LINE
  5
139
330
1F
100
AcDbEntity
  8
0
  6
Continuous
 62
     7
370
    25
100
AcDbLine
 10
103.9743933556
 20
11.5336244991
 30
0.0
 11
102.2423425481
 21
10.5336244991
 31
0.0
  0
LINE
  5
13A
330
1F
100
AcDbEntity
  8
0
  6
Continuous
 62
     7
370
    25
100
AcDbLine
 10
102.2423425481
 20
12.5336244991
 30
0.0
 11
103.9743933556
 21
11.5336244991
 31
0.0
  0
LINE
  5
13B
330
1F
100
AcDbEntity
  8
0
  6
Continuous
 62
     7
370
    25
100
AcDbLine
 10
175.6902917405
 20
11.5336244991
 30
0.0
 11
177.4223425481
 21
12.5336244991
 31
0.0
  0
LINE
  5
13C
330
1F
100
AcDbEntity
  8
0
  6
Continuous
 62
     7
370
    25
100
AcDbLine
 10
102.2423425481
 20
10.5336244991
 30
0.0
 11
103.9743933556
 21
9.5336244991
 31
0.0
  0
LINE
  5
13D
330
1F
100
AcDbEntity
  8
0
  6
Continuous
 62
     7
370
    25
100
AcDbLine
 10
175.6902917405
 20
9.5336244991
 30
0.0
 11
177.4223425481
 21
10.5336244991
 31
0.0
  0
LINE
  5
13E
330
1F
100
AcDbEntity
  8
0
  6
Continuous
 62
     7
370
    25
100
AcDbLine
 10
177.4223425481
 20
8.5336244991
 30
0.0
 11
175.6902917405
 21
9.5336244991
 31
0.0
  0
LINE
  5
13F
330
1F
100
AcDbEntity
  8
0
  6
Continuous
 62
     7
370
    25
100
AcDbLine
 10
103.9743933556
 20
9.5336244991
 30
0.0
 11
102.2423425481
 21
8.5336244991
 31
0.0
  0
LINE
  5
140
330
1F
100
AcDbEntity
  8
0
  6
Continuous
 62
     7
370
    25
100
AcDbLine
 10
102.2423425481
 20
8.5336244991
 30
0.0
 11
103.9743933556
 21
7.5336244991
 31
0.0
  0
LINE
  5
141
330
1F
100
AcDbEntity
  8
0
  6
Continuous
 62
     7
370
    25
100
AcDbLine
 10
175.6902917405
 20
7.5336244991
 30
0.0
 11
177.4223425481
 21
8.5336244991
 31
0.0
  0
LINE
  5
142
330
1F
100
AcDbEntity
  8
0
  6
Continuous
 62
     7
370
    25
100
AcDbLine
 10
177.4223425481
 20
6.5336244991
 30
0.0
 11
175.6902917405
 21
7.5336244991
 31
0.0
  0
LINE
  5
143
330
1F
100
AcDbEntity
  8
0
  6
Continuous
 62
     7
370
    25
100
AcDbLine
 10
103.9743933556
 20
7.5336244991
 30
0.0
 11
102.2423425481
 21
6.5336244991
 31
0.0
  0
LINE
  5
144
330
1F
100
AcDbEntity
  8
0
  6
Continuous
 62
     7
370
    25
100
AcDbLine
 10
102.2423425481
 20
6.5336244991
 30
0.0
 11
102.2423425481
 21
-9.4663755009
 31
0.0
  0
LINE
  5
145
330
1F
100
AcDbEntity
  8
0
  6
Continuous
 62
     7
370
    25
100
AcDbLine
 10
177.4223425481
 20
-9.4663755009
 30
0.0
 11
177.4223425481
 21
6.5336244991
 31
0.0
  0
LINE
  5
146
330
1F
100
AcDbEntity
  8
0
  6
Continuous
 62
     7
370
    25
100
AcDbLine
 10
102.3323425481
 20
-61.4663755009
 30
0.0
 11
102.3323425481
 21
-132.4663755009
 31
0.0
  0
LINE
  5
147
330
1F
100
AcDbEntity
  8
0
  6
Continuous
 62
     7
370
    25
100
AcDbLine
 10
177.3323425481
 20
-132.4663755009
 30
0.0
 11
177.3323425481
 21
-61.4663755009
 31
0.0
  0
LINE
  5
148
330
1F
100
AcDbEntity
  8
0
  6
Continuous
 62
     7
370
    25
100
AcDbLine
 10
88.8323425481
 20
-25.4663755009
 30
0.0
 11
190.8323425481
 21
-25.4663755009
 31
0.0
  0
LINE
  5
149
330
1F
100
AcDbEntity
  8
0
  6
Continuous
 62
     7
370
    25
100
AcDbLine
 10
89.3323425481
 20
-61.4663755009
 30
0.0
 11
190.3323425459
 21
-61.4663755009
 31
0.0
  0
LINE
  5
14A
330
1F
100
AcDbEntity
  8
0
  6
Continuous
 62
     7
370
    25
100
AcDbLine
 10
178.8323425481
 20
-25.4663755009
 30
0.0
 11
178.8323425481
 21
-9.4663755009
 31
0.0
  0
LINE
  5
14B
330
1F
100
AcDbEntity
  8
0
  6
Continuous
 62
     7
370
    25
100
AcDbLine
 10
139.8323425481
 20
-25.4663755009
 30
0.0
 11
139.8323425481
 21
-9.4663755009
 31
0.0
  0
LINE
  5
14C
330
1F
100
AcDbEntity
  8
0
  6
Continuous
 62
     7
370
    25
100
AcDbLine
 10
178.8323425481
 20
-9.4663755009
 30
0.0
 11
139.8323425481
 21
-9.4663755009
 31
0.0
  0
LINE
  5
14D
330
1F
100
AcDbEntity
  8
0
  6
Continuous
 62
     7
370
    25
100
AcDbLine
 10
100.8323425481
 20
-25.4663755009
 30
0.0
 11
100.8323425481
 21
-9.4663755009
 31
0.0
  0
LINE
  5
14E
330
1F
100
AcDbEntity
  8
0
  6
Continuous
 62
     7
370
    25
100
AcDbLine
 10
139.8323425481
 20
-9.4663755009
 30
0.0
 11
100.8323425481
 21
-9.4663755009
 31
0.0
  0
LINE
  5
14F
330
1F
100
AcDbEntity
  8
0
  6
Continuous
 62
     7
370
    25
100
AcDbLine
 10
102.2423425481
 20
12.5336244991
 30
0.0
 11
177.4223425481
 21
12.5336244991
 31
0.0
  0
LINE
  5
150
330
1F
100
AcDbEntity
  8
0
  6
Continuous
 62
     7
370
    25
100
AcDbLine
 10
103.9743933556
 20
13.5336244991
 30
0.0
 11
175.6902917405
 21
13.5336244991
 31
0.0
  0
LINE
  5
151
330
1F
100
AcDbEntity
  8
0
  6
Continuous
 62
     7
370
    25
100
AcDbLine
 10
102.2423425481
 20
10.5336244991
 30
0.0
 11
177.4223425481
 21
10.5336244991
 31
0.0
  0
LINE
  5
152
330
1F
100
AcDbEntity
  8
0
  6
Continuous
 62
     7
370
    25
100
AcDbLine
 10
103.9743933556
 20
11.5336244991
 30
0.0
 11
175.6902917405
 21
11.5336244991
 31
0.0
  0
LINE
  5
153
330
1F
100
AcDbEntity
  8
0
  6
Continuous
 62
     7
370
    25
100
AcDbLine
 10
103.9743933556
 20
9.5336244991
 30
0.0
 11
175.6902917405
 21
9.5336244991
 31
0.0
  0
LINE
  5
154
330
1F
100
AcDbEntity
  8
0
  6
Continuous
 62
     7
370
    25
100
AcDbLine
 10
102.2423425481
 20
8.5336244991
 30
0.0
 11
177.4223425481
 21
8.5336244991
 31
0.0
  0
LINE
  5
155
330
1F
100
AcDbEntity
  8
0
  6
Continuous
 62
     7
370
    25
100
AcDbLine
 10
103.9743933556
 20
7.5336244991
 30
0.0
 11
175.6902917405
 21
7.5336244991
 31
0.0
  0
LINE
  5
156
330
1F
100
AcDbEntity
  8
0
  6
Continuous
 62
     7
370
    25
100
AcDbLine
 10
102.2423425481
 20
6.5336244991
 30
0.0
 11
177.4223425481
 21
6.5336244991
 31
0.0
  0
LINE
  5
157
330
1F
100
AcDbEntity
  8
0
  6
Continuous
 62
     7
370
    25
100
AcDbLine
 10
102.3323425481
 20
-132.4663755009
 30
0.0
 11
177.3323425481
 21
-132.4663755009
 31
0.0
  0
LINE
  5
158
330
1F
100
AcDbEntity
  8
0
  6
Continuous
 62
     1
370
    25
100
AcDbLine
 10
88.8323425481
 20
-60.9663755009
 30
0.0
 11
190.8323425481
 21
-60.9663755009
 31
0.0
  0
ENDSEC
  0
SECTION
  2
OBJECTS
  0
DICTIONARY
  5
C
330
0
100
AcDbDictionary
281
     1
  3
ACAD_GROUP
350
D
  3
ACAD_LAYOUT
350
1A
  3
ACAD_MLINESTYLE
350
17
  3
ACAD_PLOTSETTINGS
350
19
  3
ACAD_PLOTSTYLENAME
350
E
  3
ACAD_SCALELIST
350
47
  3
DWGPROPS
350
159
  0
DICTIONARY
  5
D
102
{ACAD_REACTORS
330
C
102
}
330
C
100
AcDbDictionary
281
     1
  0
DICTIONARY
  5
1A
102
{ACAD_REACTORS
330
C
102
}
330
C
100
AcDbDictionary
281
     1
  3
Layout1
350
1E
  3
Layout2
350
26
  3
Model
350
22
  0
DICTIONARY
  5
17
102
{ACAD_REACTORS
330
C
102
}
330
C
100
AcDbDictionary
281
     1
  3
Standard
350
18
  0
DICTIONARY
  5
19
102
{ACAD_REACTORS
330
C
102
}
330
C
100
AcDbDictionary
281
     1
  0
ACDBDICTIONARYWDFLT
  5
E
102
{ACAD_REACTORS
330
C
102
}
330
C
100
AcDbDictionary
281
     1
  3
Normal
350
F
100
AcDbDictionaryWithDefault
340
F
  0
DICTIONARY
  5
47
102
{ACAD_REACTORS
330
C
102
}
330
C
100
AcDbDictionary
281
     1
  3
A0
350
48
  3
A1
350
49
  3
A2
350
4A
  3
A3
350
4B
  3
A4
350
4C
  3
A5
350
4D
  3
A6
350
4E
  3
A7
350
4F
  3
A8
350
50
  3
A9
350
51
  3
B0
350
52
  3
B1
350
53
  3
B2
350
54
  3
B3
350
55
  3
B4
350
56
  3
B5
350
57
  3
B6
350
58
  3
B7
350
59
  3
B8
350
5A
  3
B9
350
5B
  3
C0
350
5C
  3
C1
350
5D
  3
C2
350
5E
  3
C3
350
5F
  3
C4
350
60
  3
C5
350
61
  3
C6
350
62
  3
C7
350
63
  3
C8
350
64
  3
C9
350
65
  3
D0
350
66
  3
D1
350
67
  3
D2
350
68
  0
XRECORD
  5
159
102
{ACAD_REACTORS
330
C
102
}
330
C
100
AcDbXrecord
280
     1
  1
DWGPROPS COOKIE
  2

  3

  4

  6

  7

  8
b.kav
  9

300
=
301
=
302
=
303
=
304
=
305
=
306
=
307
=
308
=
309
=
 40
0.0
 41
2459948.454419016
 42
2459948.45441919
  1

 90
        0
  0
LAYOUT
  5
1E
102
{ACAD_REACTORS
330
1A
102
}
330
1A
100
AcDbPlotSettings
  1

  2
none_device
  4

  6

 40
0.0
 41
0.0
 42
0.0
 43
0.0
 44
0.0
 45
0.0
 46
0.0
 47
0.0
 48
0.0
 49
0.0
140
0.0
141
0.0
142
1.0
143
1.0
 70
   688
 72
     1
 73
     0
 74
     5
  7

 75
    16
147
1.0
148
0.0
149
0.0
100
AcDbLayout
  1
Layout1
 70
     1
 71
     1
 10
0.0
 20
0.0
 11
420.0
 21
297.0
 12
0.0
 22
0.0
 32
0.0
 14
1.0000000000E+20
 24
1.0000000000E+20
 34
1.0000000000E+20
 15
-1.0000000000E+20
 25
-1.0000000000E+20
 35
-1.0000000000E+20
146
0.0
 13
0.0
 23
0.0
 33
0.0
 16
1.0
 26
0.0
 36
0.0
 17
0.0
 27
1.0
 37
0.0
 76
     0
330
1B
  0
LAYOUT
  5
26
102
{ACAD_REACTORS
330
1A
102
}
330
1A
100
AcDbPlotSettings
  1

  2
none_device
  4

  6

 40
0.0
 41
0.0
 42
0.0
 43
0.0
 44
0.0
 45
0.0
 46
0.0
 47
0.0
 48
0.0
 49
0.0
140
0.0
141
0.0
142
1.0
143
1.0
 70
   688
 72
     1
 73
     0
 74
     5
  7

 75
    16
147
1.0
148
0.0
149
0.0
100
AcDbLayout
  1
Layout2
 70
     1
 71
     2
 10
0.0
 20
0.0
 11
0.0
 21
0.0
 12
0.0
 22
0.0
 32
0.0
 14
0.0
 24
0.0
 34
0.0
 15
0.0
 25
0.0
 35
0.0
146
0.0
 13
0.0
 23
0.0
 33
0.0
 16
1.0
 26
0.0
 36
0.0
 17
0.0
 27
1.0
 37
0.0
 76
     0
330
23
  0
LAYOUT
  5
22
102
{ACAD_REACTORS
330
1A
102
}
330
1A
100
AcDbPlotSettings
  1

  2
none_device
  4
Letter_(8.50_x_11.00_Inches)
  6

 40
6.35
 41
6.35
 42
6.35000508
 43
6.35000508
 44
215.9
 45
279.4
 46
0.0
 47
0.0
 48
0.0
 49
0.0
140
0.0
141
0.0
142
1.0
143
1.0
 70
  1712
 72
     1
 73
     0
 74
     0
  7

 75
     0
147
1.0
148
0.0
149
0.0
100
AcDbLayout
  1
Model
 70
     1
 71
     0
 10
0.0
 20
0.0
 11
279.4
 21
215.9
 12
0.0
 22
0.0
 32
0.0
 14
0.0
 24
0.0
 34
0.0
 15
279.4
 25
215.9
 35
0.0
146
0.0
 13
0.0
 23
0.0
 33
0.0
 16
1.0
 26
0.0
 36
0.0
 17
0.0
 27
1.0
 37
0.0
 76
     0
330
1F
331
29
  0
MLINESTYLE
  5
18
102
{ACAD_REACTORS
330
17
102
}
330
17
100
AcDbMlineStyle
  2
Standard
 70
     0
  3

 62
   256
 51
90.0
 52
90.0
 71
     2
 49
0.5
 62
   256
  6
BYLAYER
 49
-0.5
 62
   256
  6
BYLAYER
  0
ACDBPLACEHOLDER
  5
F
102
{ACAD_REACTORS
330
E
102
}
330
E
  0
SCALE
  5
48
102
{ACAD_REACTORS
330
47
102
}
330
47
100
AcDbScale
 70
     0
300
1:1
140
1.0
141
1.0
290
     1
  0
SCALE
  5
49
102
{ACAD_REACTORS
330
47
102
}
330
47
100
AcDbScale
 70
     0
300
1:2
140
1.0
141
2.0
290
     0
  0
SCALE
  5
4A
102
{ACAD_REACTORS
330
47
102
}
330
47
100
AcDbScale
 70
     0
300
1:4
140
1.0
141
4.0
290
     0
  0
SCALE
  5
4B
102
{ACAD_REACTORS
330
47
102
}
330
47
100
AcDbScale
 70
     0
300
1:5
140
1.0
141
5.0
290
     0
  0
SCALE
  5
4C
102
{ACAD_REACTORS
330
47
102
}
330
47
100
AcDbScale
 70
     0
300
1:8
140
1.0
141
8.0
290
     0
  0
SCALE
  5
4D
102
{ACAD_REACTORS
330
47
102
}
330
47
100
AcDbScale
 70
     0
300
1:10
140
1.0
141
10.0
290
     0
  0
SCALE
  5
4E
102
{ACAD_REACTORS
330
47
102
}
330
47
100
AcDbScale
 70
     0
300
1:16
140
1.0
141
16.0
290
     0
  0
SCALE
  5
4F
102
{ACAD_REACTORS
330
47
102
}
330
47
100
AcDbScale
 70
     0
300
1:20
140
1.0
141
20.0
290
     0
  0
SCALE
  5
50
102
{ACAD_REACTORS
330
47
102
}
330
47
100
AcDbScale
 70
     0
300
1:30
140
1.0
141
30.0
290
     0
  0
SCALE
  5
51
102
{ACAD_REACTORS
330
47
102
}
330
47
100
AcDbScale
 70
     0
300
1:40
140
1.0
141
40.0
290
     0
  0
SCALE
  5
52
102
{ACAD_REACTORS
330
47
102
}
330
47
100
AcDbScale
 70
     0
300
1:50
140
1.0
141
50.0
290
     0
  0
SCALE
  5
53
102
{ACAD_REACTORS
330
47
102
}
330
47
100
AcDbScale
 70
     0
300
1:100
140
1.0
141
100.0
290
     0
  0
SCALE
  5
54
102
{ACAD_REACTORS
330
47
102
}
330
47
100
AcDbScale
 70
     0
300
2:1
140
2.0
141
1.0
290
     0
  0
SCALE
  5
55
102
{ACAD_REACTORS
330
47
102
}
330
47
100
AcDbScale
 70
     0
300
4:1
140
4.0
141
1.0
290
     0
  0
SCALE
  5
56
102
{ACAD_REACTORS
330
47
102
}
330
47
100
AcDbScale
 70
     0
300
8:1
140
8.0
141
1.0
290
     0
  0
SCALE
  5
57
102
{ACAD_REACTORS
330
47
102
}
330
47
100
AcDbScale
 70
     0
300
10:1
140
10.0
141
1.0
290
     0
  0
SCALE
  5
58
102
{ACAD_REACTORS
330
47
102
}
330
47
100
AcDbScale
 70
     0
300
100:1
140
100.0
141
1.0
290
     0
  0
SCALE
  5
59
102
{ACAD_REACTORS
330
47
102
}
330
47
100
AcDbScale
 70
     0
300
1/128" = 1'-0"
140
0.0078125
141
12.0
290
     0
  0
SCALE
  5
5A
102
{ACAD_REACTORS
330
47
102
}
330
47
100
AcDbScale
 70
     0
300
1/64" = 1'-0"
140
0.015625
141
12.0
290
     0
  0
SCALE
  5
5B
102
{ACAD_REACTORS
330
47
102
}
330
47
100
AcDbScale
 70
     0
300
1/32" = 1'-0"
140
0.03125
141
12.0
290
     0
  0
SCALE
  5
5C
102
{ACAD_REACTORS
330
47
102
}
330
47
100
AcDbScale
 70
     0
300
1/16" = 1'-0"
140
0.0625
141
12.0
290
     0
  0
SCALE
  5
5D
102
{ACAD_REACTORS
330
47
102
}
330
47
100
AcDbScale
 70
     0
300
3/32" = 1'-0"
140
0.09375
141
12.0
290
     0
  0
SCALE
  5
5E
102
{ACAD_REACTORS
330
47
102
}
330
47
100
AcDbScale
 70
     0
300
1/8" = 1'-0"
140
0.125
141
12.0
290
     0
  0
SCALE
  5
5F
102
{ACAD_REACTORS
330
47
102
}
330
47
100
AcDbScale
 70
     0
300
3/16" = 1'-0"
140
0.1875
141
12.0
290
     0
  0
SCALE
  5
60
102
{ACAD_REACTORS
330
47
102
}
330
47
100
AcDbScale
 70
     0
300
1/4" = 1'-0"
140
0.25
141
12.0
290
     0
  0
SCALE
  5
61
102
{ACAD_REACTORS
330
47
102
}
330
47
100
AcDbScale
 70
     0
300
3/8" = 1'-0"
140
0.375
141
12.0
290
     0
  0
SCALE
  5
62
102
{ACAD_REACTORS
330
47
102
}
330
47
100
AcDbScale
 70
     0
300
1/2" = 1'-0"
140
0.5
141
12.0
290
     0
  0
SCALE
  5
63
102
{ACAD_REACTORS
330
47
102
}
330
47
100
AcDbScale
 70
     0
300
3/4" = 1'-0"
140
0.75
141
12.0
290
     0
  0
SCALE
  5
64
102
{ACAD_REACTORS
330
47
102
}
330
47
100
AcDbScale
 70
     0
300
1" = 1'-0"
140
1.0
141
12.0
290
     0
  0
SCALE
  5
65
102
{ACAD_REACTORS
330
47
102
}
330
47
100
AcDbScale
 70
     0
300
1-1/2" = 1'-0"
140
1.5
141
12.0
290
     0
  0
SCALE
  5
66
102
{ACAD_REACTORS
330
47
102
}
330
47
100
AcDbScale
 70
     0
300
3" = 1'-0"
140
3.0
141
12.0
290
     0
  0
SCALE
  5
67
102
{ACAD_REACTORS
330
47
102
}
330
47
100
AcDbScale
 70
     0
300
6" = 1'-0"
140
6.0
141
12.0
290
     0
  0
SCALE
  5
68
102
{ACAD_REACTORS
330
47
102
}
330
47
100
AcDbScale
 70
     0
300
1'-0" = 1'-0"
140
12.0
141
12.0
290
     0
  0
ENDSEC
  0
EOF
